Oops, an error
Loading. Please wait.

Miss June 75 Tab

version 2
version 2

Whole song

4,386 views 12 this week
no commentswrite comment
1 2 3 4 5
please rate
add to favorites
launch autoscroll
font size
0
reset
how to read this tab
guitar tuner
Tab Pro tools
  • play this tab
  • loop segment
  • change instrument
  • show fretboard
  • metronome
×
Best way to learn
"Miss June 75"
Autoscroll
slow
fast
+/-
esc
set tempo
stop
Difficulty
intermediate
CHORDS USED
F# (2-4-4-3-2-2)-|
E (0-2-2-1-0-0)--|
B (7-9-9-8-7-7)--|

intro:

 F#          E     B
e------------------------|
B------------------------|
G------------------------|
D------------------------|
A------------------------|
E-2-----2h4--0------7----|

F#                            E              B
She shines like the sun, i'm constantly wondering
F#                    E             B
just what she sees in me
F#                      E             B
she says im the one, i gotta believe it
  F#                   E          B
i know she believes in me

  F#          E        B   F#        E      B
e---------------------------------------------|
B---------------------------------------------|
G----------2p1--1h2/4-------------------------|
D-2\1/4-----------------2-2h4--4-2--2-4-------|
A----------------------------------4------2-0-|
E---------------------------------------------|
 F#          E      B   F#         E     B
e----------------------------------------------|
B----------------------------------------------|
G----------------------------------------------|
D----4-2---2-4-------------4-2---2-4-------2-4-|
A--------4------2^-0-----------4-----2^-4-4----|
E-2---------------------2----------------------|

F#                     E             B
Im losing my mind, im losing it to her
F#                     E        B
I know she will set me free
F#                       E                B
the feeling's so fine, i just gotta tell her
F#                    E           B
how much she means to me

 F#            E     B      F#              E          B
e---------------------------------------------------------|
B---------------------------------------------------------|
G-----------2p1-1-1----------------------2-1--1/-2/-4-----|
D---2-4-4-4---------h4-4p2-2h4-4-4p2---4------------------|
A-4----------------------------------4--------------------|
E---------------------------------------------------------|

      F#             E         B     F#             E       B
e-----------------5p4-4-4p2-2-2-0-0-2-2-0-0h2-2-2-5-4-4/-5/-7----9-|
B-------5-5/7-7-7----------------2-------2-------------------------|
G-4-/6-6-6---------------------------------------------------------|
D------------------------------------------------------------------|
A------------------------------------------------------------------|
E------------------------------------------------------------------|
comments
We did not receive enough feedback on this tab! Please rate:
print report bad tab
1 2 3 4 5
I want to post or [tab]
guest
You may want to rate the tab now too:
select rating
Please do not post tabs as comments. Select "correction" instead!