Oops, an error
Loading. Please wait.

Never Ever Tab

1,203 views 1 this week
no commentswrite comment
1 2 3 4 5
excellent!
x 7
add to favorites
launch autoscroll
font size
0
reset
how to read this tab
guitar tuner
Tab Pro tools
  • play this tab
  • loop segment
  • change instrument
  • show fretboard
  • metronome
×
Best way to learn
"Never Ever"
Autoscroll
slow
fast
+/-
esc
set tempo
stop
Contributor
Difficulty
novice
Brian Jonestown Massacre - Never, Ever! 
ALBUM VERSION
(please remember this as the ending is slightly more complex on this one)


Guitar 1 (Played from the very start of the song until the very end)

E|-0---0---0---0---0---0---0---0---0---0---0---0---0---0---0---0---0---0---0---0|
B|---0---0---0---0---0---0---0---0---0---0---0---0---0---0---0---0---0---0---0--|
G|------------------------------------------------------------------------------|
D|------------------------------------------------------------------------------|
A|------------------------------------------------------------------------------|
E|------------------------------------------------------------------------------|

Guitar 2  (Time depends on which version is being played.)

0:12/   0:15/
E|-0---------0---------0---------0--------|
B|-0---------2---------0---------2--------|
G|-1---------2---------1---------2--------|   Etc..
D|-2---------2---------2---------2--------|         Played to the very end.
A|-2---------0---------2---------0--------|
E|-0-------------------0------------------|

Guitar 3 (0.23 - 0:42)(1:23 - 1:42)(2:23 - 2:42)
        

E|-0-------------------------0------------------------|
B|---3-0--0-0---0--------------3-0--0-0---0--3-0-3/5--|
G|------------2-------------------------2-------------|
D|-----------------2--2-0--2--------------------------|
A|----------------------------------------------------|
E|----------------------------------------------------|

E|-0---------------------0------------12--------------|
B|---3-0--0-0---0----------2-0--0-0-0----10^----------|
G|------------2-------------------------------12-9----|
D|-----------------2--2-0-----------------------------|
A|----------------------------------------------------|
E|----------------------------------------------------|

Then (2:42 - 3:03)

E|----------------------------------------------------------------|
B|---------10^-10^-10^--------------------------------------------|
G|-9--9-12-------------12-9----9-9-9---12-9--9-9-9--------------9-|
D|--------------------------12---------------------12-9-12-9-12---|
A|----------------------------------------------------------------|
E|----------------------------------------------------------------|

E|-------------------------------------------------12-------------|
B|---------10^-10^-10^--------------------------------10^---------|
G|-9--9-12-------------12-9----9-9-9---12-9--9-9-9---------12-9---|
D|--------------------------12------------------------------------|
A|----------------------------------------------------------------|
E|----------------------------------------------------------------|

Quietly played again (3:23 - 3:42) Then Played twice from (4:03 - 4:43)

E|-0-------------------------0------------------------|
B|---3-0--0-0---0--------------3-0--0-0---0--3-0-3/5--|
G|------------2-------------------------2-------------|
D|-----------------2--2-0--2--------------------------|
A|----------------------------------------------------|
E|----------------------------------------------------|

E|-0---------------------0------------12--------------|
B|---3-0--0-0---0----------2-0--0-0-0----10^----------|
G|------------2-------------------------------12-9----|
D|-----------------2--2-0-----------------------------|
A|----------------------------------------------------|
E|----------------------------------------------------|

Guitar 3 (4:44 - 4:54)

E|--------------------12---------------------------12---------|
B|------10^-10^----------10^-----------10^-10^--10----10^-----|
G|-9-12----------12-9------12-9--9-12--------------------12-9-|
D|------------------------------------------------------------|
A|------------------------------------------------------------|
E|------------------------------------------------------------|

Guitar 4 (4:54 - End) Fades in and out

E|-0--------------------------0----------------------------|
B|---3-0-0--0-0---0-2-3-2---3---3-0-0--0-0---0-0-2-2-2---3-|
G|--------------2--------------------------2---------------|
D|---------------------------------------------------------|
A|---------------------------------------------------------|
E|---------------------------------------------------------|

Guitar 3 (4:56 - END)

E|-12------------------10-10--12-12-12--12--------------------|
B|----10^--10-10-10-12---------------------10^--12---10-------|
G|-----------------------------------------------------12-9-9-|
D|------------------------------------------------------------|
A|------------------------------------------------------------|
E|------------------------------------------------------------|

E|------12-----------------10---------12----------------12---------|
B|--------10^--10----10-------12--12-----10^---------------10^-----|
G|-9-9------------12----12-------------------12-9-------------12-9-|
D|-----------------------------------------------------------------|
A|-----------------------------------------------------------------|
E|-----------------------------------------------------------------|

E|--------------12-----------------12-------------------10-10--12-12-12--12----------|
B|-----------------10^----------------10^---10-10-10-12---------------------10^------|
G|-9--12--9------------12-9----------------------------------------------------12-9--|
D|----------12-----------------------------------------------------------------------|
A|-----------------------------------------------------------------------------------|
E|-----------------------------------------------------------------------------------|

Jarokkari
Tabbing as many BJM songs as i can for all you beautiful people out there.
comments
print report bad tab
I want to post or [tab]
guest
You may want to rate the tab now too:
select rating
Please do not post tabs as comments. Select "correction" instead!