Oops, an error
Loading. Please wait.

No Come Down Tab

2,087 views 3 this week
2 commentsread comments
1 2 3 4 5
worth learning
x 3
add to favorites
launch autoscroll
font size
0
reset
how to read this tab
guitar tuner
Tab Pro tools
  • play this tab
  • loop segment
  • change instrument
  • show fretboard
  • metronome
Autoscroll
slow
fast
+/-
esc
set tempo
stop
Contributor
----------------------------------------------------------------------------              
NO COME DOWN - Brian Jonestown Massacre
----------------------------------------------------------------------------

Tabbed by: T.J.
...Off one of their 3 1996 albums, 'Their Satanic Majesties Second Request'

Tuning: Standard (EADGBE)

Verses:
     A     G     E        *fill*
e|---5-----3-----0---0-------------------|
B|---5-----3-----0---0-------------------|
G|---6-----4-----1---1-------------------|
D|---7-----5-----2---2---------5---------|
A|---7-----5-----2---2----5h7------------|
E|---5-----3-----0---0-------------------|

ie. 
     A   G  E      *fill*        A   G  E    *fill*
I've waited for the come-down to put me in my place

etc...

Chorus: (chords playing over the lead on acoustic)
    E     E7      E    E7     A     A7      A     A7
e|-------------------------|-----------------------------|
B|-------------------------|-----------------------------|
G|-------------------------|--------2--0~---------0~-----|
D|--------2--0~--------0~--|-----2----------0h2----------|
A|-----2---------0h2-------|--0--------------------------|
E|--0----------------------|-----------------------------|

| ~  let ring

enjoy!
comments
We did not receive enough feedback on this tab! Please rate:
print report bad tab
1 2 3 4 5
2 comments total.
0 reply
Picarddelta wrote on October 23 2007, 04:53 pm

well done. thank you.

0 reply
ddulin wrote on April 15 2013, 10:48 pm

The fill can also be played this way which is the same thing just much easier.
E|---------------
B|---------------
G|---------0-----
D|------0h2------
A|---------------
E|---------------

I want to post or [tab]
guest
You may want to rate the tab now too:
select rating
Please do not post tabs as comments. Select "correction" instead!