Oops, an error
Loading. Please wait.
1,270 views 15 this week
1 commentread comment
1 2 3 4 5
2 more votes to show rating
add to favorites
×
Save as Personal and add changes to this tab that will be seen only by you. Learn more ›
×
You can save this tab as Personal to edit and correct it or add notes. All changes will be seen only by you. Learn more »
launch autoscroll
font size
0
reset
how to read this tab
guitar tuner
edit
Autoscroll
slow
fast
+/-
esc
set tempo
stop
Nobody else posts BJM tabs, so I might as well do it myself.
I think this is one of the guitars part here, it sounds good to the ear
4th Fret Capo------------- IMPORTANT

If anyone wants me to make a video on YouTube, just ask.

Add tremolo + reverb


[Intro]



e|---------------------------|
B|---------------------------|
G|-----2----0----------------|   x4
D|------------2-0h2-2--------|
A|-0-0---0-------------------|
E|---------------------------|

[Verse]

e|---------------------------------------------------------------------------------|
B|---------------------------------------------------------------------------------|
G|----2----0---------------------2---0-----------------------2----0----------------|
D|--------------2--0h2-2-------------------2---0h2--2------------------2---0h2-2---|
A|-0-0---0------------------3--3---3-----------------------------------------------|
E|------------------------------------------------------3-3----3-------------------|

e|---------------------------------------------------------------------------|
B|---------------------------------------------------------------------------|
G|------2----0---------------------------------------------------------------|
D|-----------------2---0h2--2------------------------------------------------|
A|-5-5----5------------------------------------------------------------------|
E|---------------------------------------------------------------------------|

Repeat as many times you see fit

Chord Part is

e|------------------------------------3--333--------22222222222-------------------|
B|---2--222----1--111----2---222--------------------33333333333-------------------|
G|---2--222----0--000----2---222--------------------22222222222-------------------|
D|---2--222----2--222----2---222--------------------------------------------------|
A|---0--000-0--3--333-0--0---000--0---2--222--------------------------------------|
E|------------------------------------3--333---0----------------------------------|

     A          C        A            G             D

[Back to Verse to End]

************************************

| h  Hammer-on

************************************
Suggest correction
Creating personal tab
Creating personal tab
You can edit any tab online and save it as your Personal.

You can edit, replace or remove any tab part or add personal notes – all changes will be seen only by you.

Personal tabs can be accessed anytime from any device, even offline.
Learn more »
Give kudos to tab author, rate the tab!
1 2 3 4 5
comments
print report bad tab
1 comment total.
0 reply
remdyx 740 May 17, 2016 10:52 AM

you should change name of the song, because its called "Pish", not "Phish"

guest
You may want to rate the tab now too:
select rating
Wanna post a correction for this tab? Suggest correction