Oops, an error
Loading. Please wait.

Satellite Tab

version 1
version 1

Whole song

9,533 views 18 this week
no commentswrite comment
1 2 3 4 5
accurate
x 1
add to favorites
launch autoscroll
font size
0
reset
how to read this tab
guitar tuner
Tab Pro tools
  • play this tab
  • loop segment
  • change instrument
  • show fretboard
  • metronome
Autoscroll
slow
fast
+/-
esc
set tempo
stop
SATELLITE

(Can be played with capo on the first fret and the chords E G A. Also, played on E G A live.)

Chords Used (E-A-D-G-B-E)
F  (1-3-3-2-1-1)
G# (4-6-6-5-4-4)
Bb (6-8-8-7-6-6)
D# (6-6-8-8-8-6)

Intro:

e--13-----13----------------------------------------|
B-----------------13--------------------------------|
G-----------------------10-----10------5^--5^-------|
D---------------------------------------------------|
A---------------------------------------------------|
E---------------------------------------------------|

e--------------------------------------------------------------|
B--------------------------------------------------------------|
G--------------------------------------------------------------|
D--3--1-0------------------------------------------------------|
A-----------3---------1----------1-----------3-3-1-------------|
E--------------1----4----1----4-----1--------------------------|


F               G#  Bb
Just Passed
F               G#  Bb
Satellite
F               G#  Bb
Flying High
F              G#  Bb
Hello

F              G#  Bb
Keep it cool
F              G#  Bb
Break the rules
F              G#  Bb
Know it’s time
F              G#  Bb
To go

G#  D#  Bb
Love flies
G#  D#  Bb
Above  while

F              G# Bb
 you’re low

-thanks matt
comments
We did not receive enough feedback on this tab! Please rate:
print report bad tab
1 2 3 4 5
I want to post or [tab]
guest
You may want to rate the tab now too:
select rating
Please do not post tabs as comments. Select "correction" instead!