Oops, an error
Loading. Please wait.

Satellite Tab

version 2
version 2

Whole song

5,711 views 3 this week
no commentswrite comment
1 2 3 4 5
please rate
add to favorites
launch autoscroll
font size
0
reset
how to read this tab
guitar tuner
Tab Pro tools
  • play this tab
  • loop segment
  • change instrument
  • show fretboard
  • metronome
×
Best way to learn
"Satellite"
Autoscroll
slow
fast
+/-
esc
set tempo
stop
Contributor
Capo
1st fret
-------------------------------------------------------------------------------
                  Satellite - Brian Jonestown Massacre
-------------------------------------------------------------------------------


Tuning: Standard capo 1, or half step up.

At the beginning: to guitars are playing an e high and low, as such:
e|--12----|
B|--------|
G|--------|
D|--------|
A|--------|
E|-0------|

Intro:
Guitar 1:
   E       G   A 
e|-0-0-0-0-3-0-0-0-0-0-0-0-0-3-0-0-0-0-0-0-0-0-3-0-0-0-0-0-0-0-0-3-0-0-0-0--|
B|-0-0-0-0-3-0-2-2-0-0-0-0-0-3-0-2-2-0-0-0-0-0-3-0-2-2-0-0-0-0-0-3-0-2-2-0--|
G|-1-1-1-0-0-0-2-2-0-1-1-1-0-0-0-2-2-0-1-1-1-0-0-0-2-2-0-1-1-1-0-0-0-2-2-0--|
D|-2-2-2-0-0-0-2-2-0-2-2-2-0-0-0-2-2-0-2-2-2-0-0-0-2-2-0-2-2-2-0-0-0-2-2-0--|
A|-2-2-2-0-2-0-0-0-0-2-2-2-0-2-0-0-0-0-2-2-2-0-2-0-0-0-0-2-2-2-0-2-0-0-0-0--|
E|-0-0-0-0-3-0-----0-0-0-0-0-3-0-----0-0-0-0-0-3-0-----0-0-0-0-0-3-0-----0--|

Guitar 2:
e|-12------------------------------------------------------------------------|
B|-------------------12------------------------------------------------------|
G|-------------------------------------9-----------------9-------------------|
D|---------------------------------------------------------------------------|
A|---------------------------------------------------------------------------|
E|---------------------------------------------------------------------------|

Guitar 3: (Plays this throughout the rest of the song)
e|------------0-|
B|------------1-|
G|-2b-2brp0---2-|
D|----------2-2-|
A|--------------|
E|--------------|

Guitar 4:
e|---------------------------------------------------------------------------|
B|---------------------------------------------------------------------------|
G|---------------------------------------------------------------------------|
D|---2-0---------------------------------------------------------------------|
A|-------4-2-----0-0-----------0-0-------------------------------------------|
E|-0---------0-3-----0-----0-3-----0-----------------------------------------|

Verse:
   E       G   A     
e|-0-0-0-0-3-0-0-0-0-0-0-0-0-0-3-0-0-0-0-0--|
B|-0-0-0-0-3-0-2-0-2-0-0-0-0-0-3-0-2-0-2-0--|
G|-1-1-1-0-0-0-2-0-2-0-1-1-1-0-0-0-2-0-2-0--|
D|-2-2-2-0-0-0-2-0-2-0-2-2-2-0-0-0-2-0-2-0--|
A|-2-2-2-0-2-0-0-0-0-0-2-2-2-0-2-0-0-0-0-0--|
E|-0-0-0-0-3-0---0---0-0-0-0-0-3-0---0---0--|

Interlude:
   G       D5  A                           E       G   A
e|-3-3-3-0---0-0-0-0-0-3-3-3-0---0-0-0-0-0-0-0-0-0-3-0-0-0-0-0---------------|
B|-3-3-3-0-3-0-2-0-2-0-3-3-3-0-3-0-2-0-2-0-0-0-0-0-3-0-2-0-2-0---------------|
G|-0-0-0-0-2-0-2-0-2-0-0-0-0-0-2-0-2-0-2-0-1-1-1-0-0-0-2-0-2-0---------------|
D|-0-0-0-0-0-0-2-0-2-0-0-0-0-0-0-0-2-0-2-0-2-2-2-0-0-0-2-0-2-0---------------|
A|-2-2-2-0---0-0-0-0-0-2-2-2-0---0-0-0-0-0-2-2-2-0-2-0-0-0-0-0---------------|
E|-3-3-3-0---0---0---0-3-3-3-0---0---0---0-0-0-0-0-3-0---0---0---------------|

Solo 1: 
(0:55)
e|---------------------------------------------------------------------------|
B|---------------------------------------------------------------------------|
G|----------------------12---14b-14b-14b-14b-14b-14b--12---------------------|
D|-12-12-12-14-14-14--14--14----------------------------14-------------------|
A|---------------------------------------------------------------------------|
E|---------------------------------------------------------------------------|

(1:09)
e|---------------------------------------------------------------------------|
B|---------------------------------------------------------------------------|
G|-------------------12---14b-14b-14b-14b-14b-14b-14b-14b-14b-14b-12---------|
D|-12-12-14-14-14--14--14--------------------------------------------14------|
A|---------------------------------------------------------------------------|
E|---------------------------------------------------------------------------|

e|---------------------------------------------------------------------------|
B|--------------------121212121212-15/1717171717-17-17-17-17-----------------|
G|------12b--12b---14--------------------------------------------------------|
D|-12-14---14---14-----------------------------------------------------------|
A|---------------------------------------------------------------------------|
E|---------------------------------------------------------------------------|

(1:29)
e|---------------------------------------------------------------------------|
B|---------------------------------------------------------------------------|
G|----7-7-7-9-9-9-9----------------------------------------------------------|
D|-/9---------------7br-5-5~-5~-5~-5~-5~-------------------------------------|
A|---------------------------------------7-----------------------------------|
E|---------------------------------------------------------------------------|

Solo 2: 
(1:48)
e|---------------------------------------------------------------------------|
B|---------------------------------------------------------------------------|
G|---------------------------------------------------------------------------|
D|------------------2--------2---------------------------2------------2------|
A|-5-4-2--------0---2----0---2--7-5-5/7--5-4-2-------0---2--------0---2------|
E|--------0-3-3---3-0--3---3-0-----------------0-3-3---3-0--0-3-3---3-0------|

(2:08)
e|---------------------------------------------------------------------------|
B|---------------------------------------------------------------------------|
G|-----------------------------------------------4-------7b-7b-7b---7h9------|
D|--------------------------------5-5-7br---5-7b---7-9-9----------9----------|
A|-7-5-4--5-5\4-4-4\2-2-7--5--7-7---------7----------------------------------|
E|---------------------------------------------------------------------------|


(2:19)
e|---------------------------------------------------------------------------|
B|---------------------------------------------------------------------------|
G|---------------------------------------------------------------------------|
D|-7b-7b-7b-5~---------------------------------------------------------------|
A|--------------5-5-5\4-4-4\2-2-2-7--5--7------------------------------------|
E|---------------------------------------------------------------------------|


Solo 3:
(2:42)
e|---------------------------------------------------------------------------|
B|-------------------------------------------------------12-12-15-15/17-17---|
G|-------------------12----14b-14b-14b-14-12-14b-14b-14b---------------------|
D|-12121214141414-14----14---------------------------------------------------|
A|---------------------------------------------------------------------------|
E|---------------------------------------------------------------------------|


(2:51)
e|---------------------------------------------------------------------------|
B|-17171717------------------------------------------------------------------|
G|-----------14b-14-12-14----------------------------------------------------|
D|------------------------14-14-12--12-12-14---------------------------------|
A|---------------------------------------------------------------------------|
E|---------------------------------------------------------------------------|


(2:56)
e|---------------------------------------------------------------------------|
B|---------------------------------------------------------------------------|
G|----------------------------------------------77-7-9-9-9-7-9-9-9-9---------|
D|----------------------------5-7br-----5-7br/9------------------------------|
A|-5---5-5\4--4\2-2-7--5--7-7-------7-7--------------------------------------|
E|---------------------------------------------------------------------------|


(3:05)
e|---------------------------------------------------------------------------|
B|---------------------------------------------------------------------------|
G|---------------------------------------------------------------------------|
D|-7b-7b-7brp5---------------------------------------------------------------|
A|--------------5--5\4--4\2--2-7--5--7---------------------------------------|
E|---------------------------------------------------------------------------|


Ending: Play the intro again.


| /  slide up
| \  slide down
| h  hammer-on
| p  pull-off
| ~  vibrato
| +  harmonic
| x  Mute note
===============================================================================
comments
We did not receive enough feedback on this tab! Please rate:
print report bad tab
1 2 3 4 5
I want to post or [tab]
guest
You may want to rate the tab now too:
select rating
Please do not post tabs as comments. Select "correction" instead!