Oops, an error
Loading. Please wait.

Servo Chords

version 1
version 1

Whole song

Interactive

21,043 views 30 this week
1 commentread comment
1 2 3 4 5
excellent!
x 5
add to favorites
launch autoscroll
font size
0
reset
transpose
0
reset
display chords
guitar tuner
Tab Pro tools
  • play this tab
  • loop segment
  • change instrument
  • show fretboard
  • metronome
×
Best way to learn
"Servo"
Autoscroll
slow
fast
+/-
esc
set tempo
stop
SERVO

CHORDS USED
A (0-0-2-2-2-0)
C (0-3-2-0-1-0)
D (x-x-0-3-2-3)

Intro Chords: A C D A

Intro:
e--------------------------------------------------------------|
B--------------------------------------------------------------|
G-------------------------------------------------4------------|
D------5-7-5-7-5--------------------------------5---5-7--------|
A----------------7-5-7--------------5-7-----5-7----------------|
E-5--------------------5-5-3-5--5-8-----5-8--------------------|


A    C        D       A     A C 
A
Open up cause here i come
A       C       D    A      A C 
A
with a tip for everyone
A        C           D        A     A 
D A
i am the last of the natural ones
A            C         D      A     A 
D A
let yourself go and have some fun
comments
print report bad tab
1 comment total.
+1 reply
nicolasclement4 wrote on March 11 2014, 09:37 pm

e--------------------------------------------------------------------------
B----------------------------------------------------------------0---------
G-2--2--0--2--0-----------------------------------------------0-----0--2---
D-----------------2--0--2--------------------0--0-------0--2---------------
A-------------------------0--0-----0--0--3--------0--3---------------------
E-------------------------------3------------------------------------------

This solo is wy easy to do like it.

I want to post or [tab]
guest
You may want to rate the tab now too:
select rating
Please do not post tabs as comments. Select "correction" instead!