Oops, an error
Loading. Please wait.

Servo Tab

version 4
version 4

Whole song

Interactive

6,584 views 48 this week
no commentswrite comment
1 2 3 4 5
excellent!
x 14
add to favorites
launch autoscroll
font size
0
reset
how to read this tab
guitar tuner
Tab Pro tools
  • play this tab
  • loop segment
  • change instrument
  • show fretboard
  • metronome
×
Best way to learn
"Servo"
Autoscroll
slow
fast
+/-
esc
set tempo
stop
Contributor
Difficulty
novice
Brian Jonestown Massacre - Servo


Guitar 2 (Plays these chords through out the entire song.)
Guitar 1 (Also plays this during the vocals.)
   
   A   C     D     A
E|-0-x-0-0-x-2-2-x-0---0-0-0-|
B|-2-x-1-1-x-3-3-x-2---2-2-2-|
G|-2-x-0-0-x-2-2-x-2---2-2-2-|
D|-2-x-2-2-x-0-0-x-2---2-2-2-|
A|-0-x-3-3-x-------0---0-0-0-|
E|---------------------------|

Guitar 1 Intro           (The 9 on the D can be played as a 4 on the G)
                         (But on any live videos ive seen its been the 9.)
E|--------------------------------------------------------|
B|--------------------------------------------------------|
G|--------------------------------------------------------|
D|------7-7-5-7-5---------------------------------5-9-5-7-|
A|----------------7-5-7--------------5-5^-----5-7---------|
E|-5~-------------------5-5-3-5--5-8------5-8-------------|

E|---------------------------------------------------|
B|---------------------------------------------------|
G|---------------------------------------------------|
D|-5-7-5-7-5---------------------------------5-9-5-7-|
A|-----------7-5-7--------------5-5^-----5-7---------|
E|-----------------5-5-3-5--5-8------5-8-------------|


A    C         D      A      (repeat)
Open up 'cause here I come 
A      C        D    A      (repeat)         
With a gift for everyone 
A       C           D      A      (repeat)
And I'm sure you're not aware
A           C        D         A      (repeat)
Closed your mind but you don't care 


Guitar 1

E|---------------------------------------------------|
B|---------------------------------------------------|
G|---------------------------------------------------|
D|-7-7-5-7-5---------------------------------5-9-5-7-|
A|-----------7-5-7--------------5-5^-----5-7---------|
E|-----------------5-5-3-5--5-8------5-8-------------|

E|---------------------------------------------------|
B|---------------------------------------------------|
G|---------------------------------------------------|
D|-5-7-5-7-5---------------------------------5-9-5-7-|
A|-----------7-5-7--------------5-5^-----5-7---------|
E|-----------------5-5-3-5--5-8------5-8-------------|


A      C     D       A      (repeat)
Waking up to kingdom come 
A       C        D    A       (repeat)
With my gift for everyone
A        C           D       A       (repeat)
I am the last of the natural ones 
A            C      D         A        (repeat)
Let yourself go and have some fun 


Guitar 1

E|---------------------------------------------------|
B|---------------------------------------------------|
G|---------------------------------------------------|
D|-7-7-5-7-5---------------------------------5-9-5-7-|
A|-----------7-5-7--------------5-5^-----5-7---------|
E|-----------------5-5-3-5--5-8------5-8-------------|

E|---------------------------------------------------|
B|---------------------------------------------------|
G|---------------------------------------------------|
D|-5-7-5-7-5---------------------------------5-9-5-7-|
A|-----------7-5-7--------------5-5^-----5-7---------|
E|-----------------5-5-3-5--5-8------5-8-------------|


E|------------------------------------------------|
B|------------------------------------------------|
G|------------------------------------------------|
D|-5-9-5-7--7-7---------------------------5-9-5-7-|
A|---------------------------5-5^-----5-7---------|
E|--------------5-5-3-5--5-8------5-8-------------|

E|---------------------------------------------------|
B|---------------------------------------------------|
G|---------------------------------------------------|
D|-5-7-5-7-5---------------------------------5-9-5-7-|
A|-----------7-5-7--------------5-5^-----5-7---------|
E|-----------------5-5-3-5--5-8------5-8-------------|


A    C         D      A       (repeat)
Open up 'cause here I come 
A        C        D    A        (repeat)
With the gift for everyone 
A        C                D        A       (repeat)
I am the good things that we all share 
A         C            D      A        (repeat)
Take no chances that you're aware 

Guitar 1

E|---------------------------------------------------|
B|---------------------------------------------------|
G|---------------------------------------------------|
D|-7-7-5-7-5---------------------------------5-9-5-7-|
A|-----------7-5-7--------------5-5^-----5-7---------|
E|-----------------5-5-3-5--5-8------5-8-------------|

E|------------------------------------------------------|
B|------------------------------------------------------|
G|------------------------------------------------------|
D|-5-7-5-7-5---------------------------------5-9-5-7~~~-|
A|-----------7-5-7--------------5-5^-----5-7------------|
E|-----------------5-5-3-5--5-8------5-8----------------|

^ - Bend
~ - Let Ring
comments
print report bad tab
I want to post or [tab]
guest
You may want to rate the tab now too:
select rating
Please do not post tabs as comments. Select "correction" instead!