Oops, an error
Loading. Please wait.

Spanish Bee Tab

2,417 views 1 this week
no commentswrite comment
1 2 3 4 5
please rate
add to favorites
launch autoscroll
font size
0
reset
how to read this tab
guitar tuner
Tab Pro tools
  • play this tab
  • loop segment
  • change instrument
  • show fretboard
  • metronome
×
Best way to learn
"Spanish Bee"
Autoscroll
slow
fast
+/-
esc
set tempo
stop
Difficulty
novice
This is the Spanish guitar solo while the organ is playing also.

e----------------------------------------------------0-3-5-|
B--------------------------------------------0h2p0-3-------|
G---------2-2----------------------------0-2---------------|
D-------2-----2----------------------0-2-------------------|
A-0-2-3---------3-2-0--------0-0-2-3-----------------------|
E---------------------3-0h3b-------------------------------|

e-5-8-8-5-7-7/12-8-7-5-5-x2--------------------------------|
B---------------------------0h2p0--------------------------|
G---------------------------------2-0----------------------|
D-------------------------------------2-0------------------|
A-----------------------------------------3-2-0--------0-0-|
E-----------------------------------------------3-0h3b-----|

This tab is loosely based on the song but gives you an idea of some of the phrases and 
notes used. But is mainly designed to be adapted to what you personally may think.

Keep music evil.
comments
We did not receive enough feedback on this tab! Please rate:
print report bad tab
1 2 3 4 5
I want to post or [tab]
guest
You may want to rate the tab now too:
select rating
Please do not post tabs as comments. Select "correction" instead!