Oops, an error
Loading. Please wait.

Straight Up And Down tab

version 1
version 1

Whole song

39,539 views 48 this week
7 commentsread comments
1 2 3 4 5
x 29
add to favorites
×
Save as Personal and add changes to this tab that will be seen only by you. Learn more ›
×
You can save this tab as Personal to edit and correct it or add notes. All changes will be seen only by you. Learn more »
launch autoscroll
font size
0
reset
how to read this tab
guitar tuner
edit
Autoscroll
slow
fast
+/-
esc
set tempo
stop
Author
Difficulty
intermediate
Brian Jonestown Massacre - Straight Up and Down
(4 mins 30 seconds Version)
One of the Best songs ever!

Tabbed by ear and videos of live performances. All apologies if there are any mistakes.

Guitar 1 (part 1)

e|-------------------------------------------------------------------------|
B|-------------------------------------------------------------------------|
G|-------------------------------------------------------------------------|
D|------12-10-----10-12----5-3---3-5------12-10-----10-12----12^-10^-------|
A|-----------10-12------------3-5--------------10-12---------------12-10-12|
E|-10-10----------------3-3----------10-10----------------3-3--------------|(x2)

Guitar 2 (part 1)

Plays variations of the D and G chords.
   D               G
e|-------10----10-------------|
B|-------10----10--3-3-3-3-3--|
G|-11-11-11-11-11--4-4-5-4-4--|    
D|-12-12-12-12-12--5-5-5-5-5--|
A|-12-12----12-----5-5-5-5-5--|
E|-10-10----10-----3-3-3-3-3--|(x4)


Guitar 1 (part 2)

Play Whichever way you think sounds more like it. ( ) parts optional.
  D                            x4           D
e|-----2-0---0---------3----(3)-| Can    > |-----2-0-------------3----(3)-|
B|---------3---3-----3----------| Also   > |---------3---3-----3----------|
G|---2-----------0-0-----(0)----| Be     > |---2-------2---0-0-----(0)----|
D|-0----------------------------| Played > |-0----------------------------|
A|------------------------------| Like   > |------------------------------|
E|------------------------------| This   > |------------------------------|

Guitar 2 (part 2)

Similar to Part 1. ( ) parts optional.
  D                             G
e|----------10----10----------------3-3-3-3--------|
B|----------10----10-------------- -3-3-3-3--------|
G|-11-11-11-11-11-11-(11)-(11)--4-4-4-5-4-4-(4)-(4)|  
D|-12-12-12-12-12-12-(12)-(12)--5-5-5-5-5-5-(5)-(5)|
A|-12-12-12-12-12-12-(12)-(12)--5-5-5-5-5-5-(5)-(5)|
E|-10-10-12-10-10-10-(10)-(10)--3-3-3-3-3-5-(3)-(3)|(x4)

Guitar 1 (part 3)

e|----------10----10-------------------------------|
B|-------------------------------------------------|
G|----------------------------------4-5-4-4--------|  
D|-------12----12----------------------------------|
A|-------------------------------------------------|
E|-------------------------------------------------|(x4)

Whilst Guitar 2 Plays (Part 2) again.
   D                            G
e|----------10----10----------------3-3-3-3--------|
B|----------10----10-------------- -3-3-3-3--------|
G|-11-11-11-11-11-11-(11)-(11)--4-4-4-5-4-4-(4)-(4)|  
D|-12-12-12-12-12-12-(12)-(12)--5-5-5-5-5-5-(5)-(5)|
A|-12-12-12-12-12-12-(12)-(12)--5-5-5-5-5-5-(5)-(5)|
E|-10-10-12-10-10-10-(10)-(10)--3-3-3-3-3-5-(3)-(3)|(x4)


Guitar 1 (Part 2 again)
  D                            x4           D
e|-----2-0---0---------3----(3)-| Can    > |-----2-0-------------3----(3)-|
B|---------3---3-----3----------| Also   > |---------3---3-----3----------|
G|---2-----------0-0-----(0)----| Be     > |---2-------2---0-0-----(0)----|
D|-0----------------------------| Played > |-0----------------------------|
A|------------------------------| Like   > |------------------------------|
E|------------------------------| This   > |------------------------------|

Guitar 2 (part 2 again)
   D                            G
e|----------10----10----------------3-3-3-3--------|
B|----------10----10-------------- -3-3-3-3--------|
G|-11-11-11-11-11-11-(11)-(11)--4-4-4-5-4-4-(4)-(4)|  
D|-12-12-12-12-12-12-(12)-(12)--5-5-5-5-5-5-(5)-(5)|
A|-12-12-12-12-12-12-(12)-(12)--5-5-5-5-5-5-(5)-(5)|
E|-10-10-12-10-10-10-(10)-(10)--3-3-3-3-3-5-(3)-(3)|(x4)



Both Guitars (Chorus)

Strumming pattern is up to whatever you think sounds most like it.
   D     C    G    D              C                      D
e|-10----8----3----10----|      |-8----|               |-10---|
B|-10----8----3----10----|      |-8----|               |-10---|
G|-11----9----4----11----|  x2  |-9----| x16           |-11---|
D|-12----10---5----12----|      |-10---|      End on D |-12---|
A|-12----10---5----12----|      |-10---|               |-12---|
E|-10----8----3----10----|      |-8----|               |-10---|



Then: Guitar 1 (part1) x1
      +
      Guitar 2 (part1) x2

Then: Guitar 1 (part3) x4
      +
      Guitar 2 (part2) x4

Then: Both Guitars (chorus)



Both Guitars (part 4)
   D                G
e|-2--2-2---2--2-2--3--3-3---3--3-3-|
B|-3--3-3---3--3-3--3--3-3---3--3-3-|
G|-2--2-2---2--2-2--0--0-0---0--0-0-| x2 for guitar 1
D|-0--0-0---0--0-0--0--0-0---0--0-0-| x4 for guitar 2
A|------------------2--2-2---2--2-2-|
E|------------------3--2-2---2--2-2-|


Guitar 1 (part 5) Whilst Guitar 2 continues ^^ above.
   D                          G
e|-2-2-0----------2-2-0----------------------------|
B|-3-----3-----3--3-----3-----3--3/8-----------8/3-|
G|-2-------2-2----2-------2-2----------------------| x2
D|-0--------------0--------------------------------|
A|-------------------------------------------------|
E|-------------------------------------------------|

Guitar 1 (Solo) Whilst Guitar 2 Plays (chorus)

e|----------------------------------------------------------------------------|
B|-------------------------------------------------------------------------13-|
G|-------------------------------------------10-10--10-12^-12^-12^-12^-12^----|
D|---------------------------10--12--12-10-12-----12--------------------------|
A|-----10-10^-10^-10^-10---12--12---------------------------------------------|
E|10-13-----------------13----------------------------------------------------|

e|-------10-10-10-------------------------------------------------------------|
B|10-13---------13-10--10-----------------------------------------------------|
G|--------------------12-------10-10--10--10-12-12^-12^-12^-12^-12^-12-10-----|
D|------------------------10-12-----12--12-------------------------------12---|
A|----------------------------------------------------------------------------|
E|----------------------------------------------------------------------------|

e|----------------------------------------------------------------------|
B|----------------------------------------------------------------------|
G|--------10-10--10-10--------------------------------------------------|
D|12-10h12-----12-----12-12--12-12--12-10-------------------------------|
A|---------------------------------------12-10^--------------8-8--------|
E|---------------------------------------------13-10-10-8-10----10-10-8-|

Both guitars (Ending)
   C            D            C             D
e|-8---|      |-10---|     |-8---|       |-10---|
B|-8---|      |-10---|     |-8---|       |-10---|
G|-9---|  x16 |-11---|  x1 |-9---|  x16  |-11---|
D|-10--|      |-12---|     |-10--|       |-12---|
A|-10--|      |-12---|     |-10--|       |-12---|
E|-8---|      |-10---|     |-8---|       |-10---|


KEEP MUSIC EVIL.



************************************

| (n)  Ghost note
| /    Slide up
| h    Hammer-on

************************************

            
            
Suggest correction
Creating personal tab
Creating personal tab
You can edit any tab online and save it as your Personal.

You can edit, replace or remove any tab part or add personal notes – all changes will be seen only by you.

Personal tabs can be accessed anytime from any device, even offline.
Learn more »
comments
print report bad tab
7 comments total. Showing first comments.
-1 reply
Nonnik 40 Apr 12, 2012 12:21 PM

Fantastic tab :) Might have spotted a slight mistake on the very first riff. At the end of the riff should it not be 12 on D then 12, 10 on G then ending on 12? Also I would just play D C G for the main bit but then agian Im just playing acoustic with no accompaniment. Peace!

-1 reply
Sisko616 10 May 28, 2012 08:27 AM

Nah, man, if you go along with the 4 and a half minute version he has got right, And when they do the strumming for the chorus in any live videos ive seen they do it this way. This is a great tab!

-2 reply
nspjblac 10 Oct 16, 2012 03:09 AM

The solo (the now eponymous solo, because of boardwalk empire) it completely wrong... how can anyone vote this 5 stars are you all mad?1?!?

guest
You may want to rate the tab now too:
select rating
Wanna post a correction for this tab? Suggest correction