Oops, an error
Loading. Please wait.

Vacuum Boots tab

version 1
version 1

Whole song

5,073 views 3 this week
no commentswrite comment
1 2 3 4 5
x 8
add to favorites
×
Save as Personal and add changes to this tab that will be seen only by you. Learn more ›
×
You can save this tab as Personal to edit and correct it or add notes. All changes will be seen only by you. Learn more »
launch autoscroll
font size
0
reset
how to read this tab
guitar tuner
edit
Autoscroll
slow
fast
+/-
esc
set tempo
stop
Author
Difficulty
Brian Jonestown Massacre - Vacuum Boots

INTRO/ENDING

Guitar 1

E|------------------------------------------------------|
B|------------------------------------------------------|
G|-3-3--3-5------------------3----------------------3-5-|
D|----------6--6-6-6-6-3-6-3---6-6-6--6-3-6--6-6-6-6----|
A|------------------------------------------------------|
E|------------------------------------------------------|

E|------------------------------------------------|
B|------------------------------------------------|
G|-3-3--3-------------------------------------3-5-|
D|--------6-5--5-5-5-5-3-5--5/6-6-6--6-6-6--6-----|
A|------------------------------------------------|
E|------------------------------------------------|

E|------------------------------------------------------|
B|------------------------------------------------------|
G|-3-3--3-5------------------3----------------------3-5-|
D|----------6--6-6-6-6-3-6-3---6-6-6--6-3-6--6-6-6-6----|
A|------------------------------------------------------|
E|------------------------------------------------------|

E|---------------------------------------------------|
B|---------------------------------------------------|
G|-3-3--3--------------------------------------------|
D|--------6-5--5-5-5-5-3-5--5/6-6--6-6-6--6-5--------|
A|--------------------------------------------6-5--5-|
E|---------------------------------------------------|

Guitar 2 (played x4)

E|-6--6--6-6-6-6-x-11--11-11--11-11-11-11-x-9---9---9--9--9--9--x-4--4-4--4-4--6-6-6-4-|
B|-6--6--6-6-6-6-x-11--11-11--11-11-11-11-x-9---9---9--9--9--9--x-4--4-4--4-4--6-6-6-4-|
G|-7--7--7-7-7-7-x-12--12-12--12-12-12-12-x-10--10--10-10-10-10-x-5--5-5--5-5--7-7-7-5-|
D|-8--8--8-8-8-8-x-13--13-13--13-13-13-13-x-11--11--11-11-11-11-x-6--6-6--6-6--8-8-8-6-|
A|-8--8--8-8-8-8-x-13--13-13--13-13-13-13-x-11--11--11-11-11-11-x-6--6-6--6-6--8-8-8-6-|
E|-6--6--6-6-6-6-x-11--11-11--11-11-11-11-x-9---9---9--9--9--9--x-4--4-4--4-4--6-6-6-4-|

VERSE (played x3 then finish on the first part)

Guitar 1 (Both Guitars play the first chord)

E|-6----------------|
B|-6----------------|
G|-7-7----8-7-------|
D|-8----8-----8-----|
A|-8------------8-8-|
E|-6----------------|

Both Guitars

E|-2--2--2-2-2-2-x-11--11-11--11-11-11-11-x-|
B|-2--2--2-2-2-2-x-11--11-11--11-11-11-11-x-|
G|-3--3--3-3-3-3-x-12--12-12--12-12-12-12-x-|
D|-4--4--4-4-4-4-x-13--13-13--13-13-13-13-x-|
A|-4--4--4-4-4-4-x-13--13-13--13-13-13-13-x-|
E|-2--2--2-2-2-2-x-11--11-11--11-11-11-11-x-|


PRE-CHORUS (played x2)

E|-2--2--2-2-2-2-x-11--11-11--11-11-11-11-x-|
B|-2--2--2-2-2-2-x-11--11-11--11-11-11-11-x-|
G|-3--3--3-3-3-3-x-12--12-12--12-12-12-12-x-|
D|-4--4--4-4-4-4-x-13--13-13--13-13-13-13-x-|  
A|-4--4--4-4-4-4-x-13--13-13--13-13-13-13-x-|
E|-2--2--2-2-2-2-x-11--11-11--11-11-11-11-x-|


CHORUS (played x2)

E|-6--6--6-6-6-6-x-11--11-11--11-11-11-11-x-9---9---9--9--9--9--x-4--4-4--4-4--6-6-6-4-|
B|-6--6--6-6-6-6-x-11--11-11--11-11-11-11-x-9---9---9--9--9--9--x-4--4-4--4-4--6-6-6-4-|
G|-7--7--7-7-7-7-x-12--12-12--12-12-12-12-x-10--10--10-10-10-10-x-5--5-5--5-5--7-7-7-5-|
D|-8--8--8-8-8-8-x-13--13-13--13-13-13-13-x-11--11--11-11-11-11-x-6--6-6--6-6--8-8-8-6-|
A|-8--8--8-8-8-8-x-13--13-13--13-13-13-13-x-11--11--11-11-11-11-x-6--6-6--6-6--8-8-8-6-|
E|-6--6--6-6-6-6-x-11--11-11--11-11-11-11-x-9---9---9--9--9--9--x-4--4-4--4-4--6-6-6-4-|


ORDER

Intro/Ending
Verse
Pre-chorus
Chorus
Verse
Pre-chorus
Chorus
Intro/Ending


            
            
Suggest correction
Creating personal tab
Creating personal tab
You can edit any tab online and save it as your Personal.

You can edit, replace or remove any tab part or add personal notes – all changes will be seen only by you.

Personal tabs can be accessed anytime from any device, even offline.
Learn more »
comments
print report bad tab
guest
You may want to rate the tab now too:
select rating
Wanna post a correction for this tab? Suggest correction