Oops, an error
Loading. Please wait.

When Jokers Attack tab

9,118 views 12 this week
no commentswrite comment
1 2 3 4 5
x 5
add to favorites
×
Save as Personal and add changes to this tab that will be seen only by you. Learn more ›
×
You can save this tab as Personal to edit and correct it or add notes. All changes will be seen only by you. Learn more »
launch autoscroll
font size
0
reset
how to read this tab
guitar tuner
edit
Autoscroll
slow
fast
+/-
esc
set tempo
stop
Author
----------------------------------------------------------------------------
                WHEN JOKERS ATTACK - Brian Jonestown Massacre              
----------------------------------------------------------------------------
                     Off 2003, 'And This Is Our Music'

Tabbed by: T.J.

Tuning: standard (EADGBE)

Extremely cool song! You may not be satisfied when you play the lead, cos i
they do it on a 12-string Rickenbacker...if you happen to have one (which I
don't), tell me if it goes well.

Rhythm: | Dmin Dmin Dmin F | C  C  G  F  |

Prior to riff:  | Dmin Dmin Dmin F | C  C  G  G  |  G  G  G  G  |


CHORDS:
    Dmin    F       C       G
e|---1------1-------0-------3---|
B|---3------1-------1-------3---|
G|---2------2-------0-------0---|
D|---0------3-------2-------0---|
A|----------3-------3-------2---|
E|----------1---------------3---|

RIFF:
     Dmin                F    |  C           G
e|----------------------------|---------------------------------|
B|----------------------------|---------------------------------|
G|---7~--7-5-7--/9~--7--7h9p7-|--5~--5--7^--------------5-------|
D|----------------------------|-------------5--5--5h7-----------|
A|----------------------------|---------------------------------|
E|----------------------------|---------------------------------|


| /  slide up
| \  slide down
| h  hammer-on
| p  pull-off
| ~  vibrato
| +  harmonic
| x  Mute note

if any smart-ass can tab the "wah" in the background PLEASE also let me know
thanks

============================================================================

            
            
Suggest correction
Creating personal tab
Creating personal tab
You can edit any tab online and save it as your Personal.

You can edit, replace or remove any tab part or add personal notes – all changes will be seen only by you.

Personal tabs can be accessed anytime from any device, even offline.
Learn more »
comments
print report bad tab
guest
You may want to rate the tab now too:
select rating
Wanna post a correction for this tab? Suggest correction