Oops, an error
Loading. Please wait.

Wisdom tab

version 2
version 2

Whole song

8,299 views 30 this week
no commentswrite comment
1 2 3 4 5
x 12
add to favorites
×
Save as Personal and add changes to this tab that will be seen only by you. Learn more ›
×
You can save this tab as Personal to edit and correct it or add notes. All changes will be seen only by you. Learn more »
launch autoscroll
font size
0
reset
how to read this tab
guitar tuner
edit
Autoscroll
slow
fast
+/-
esc
set tempo
stop
Author
Difficulty
Brian Jonestown Massacre - Wisdom (Full Song)

Chords:   F#   C#    E    B    A

       E|-2----------0----7----5----|
       B|-2----9-----0----7----5----|
       G|-3----10----1----8----6----|
       D|-4----11----2----9----7----|
       A|-4----11----2----9----7----|
       E|-2----9-----0----7----5----|

Strumming pattern a little like this. (Continuous throughout song)

E|2--2--2-2-2-2--2-2-2-------------------------------0--0--0-0-0-0--0-0-0--7--7--7-7-7-5-5-5--5-5-5|
B|2--2--2-2-2-2--2-2-2--9---9--9--9--9--9--9--9--9---0--0--0-0-0-0--0-0-0--7--7--7-7-7-5-5-5--5-5-5|
G|3--3--3-3-3-3--3-3-3--10--10-10-10-10-10-10-10-10--1--1--1-1-1-1--1-1-1--8--8--8-8-8-6-6-6--6-6-6|
D|4--4--4-4-4-4--4-4-4--11--11-11-11-11-11-11-11-11--2--2--2-2-2-2--2-2-2--9--9--9-9-9-7-7-7--7-7-7|
A|4--4--4-4-4-4--4-4-4--11--11-11-11-11-11-11-11-11--2--2--2-2-2-2--2-2-2--9--9--9-9-9-7-7-7--7-7-7|
E|2--2--2-2-2-2--2-2-2--9---9--9--9--9--9--9--9--9---0--0--0-0-0-0--0-0-0--7--7--7-7-7-5-5-5--5-5-5|

Intro 

E|-------------------------------------------------------------------|
B|-------------------------------------------------------------------|
G|-11--11--11--11--11--11--11--11----------------------11----11------|
D|---11--11--11--11--11--11--11--11------------------11--11------11--| x2
A|----------------------------------9-9-9-9-9-9-9-9-9------9---------|
E|-------------------------------------------------------------------|

F#                       C#
If i thought i knew the reason
          E                  B        A
why i've gone and fallen in love with you.
F#                         C#
You're the one thing i believe in,
         E                     B     A
and i know quite well what ive got to do.

F#                    C#
First you say it's ok,
                          E
then you say there's no way,
                 B       A
then i'm making love to you.

F#                         C#
You're the one thing i believe in,
         E                       B           A
and i know it's time 'cause i've got to tell you 

Solo #1

E|-------------------------------------------------------------------|
B|-------------------------------------------------------------------|
G|-11--9-11--9-11-9----------9----9----------------------------------|
D|-------------------11-9-11---11----11-9-11-9-------------7---7-7---|
A|---------------------------------------------9--9-9--7-9---9-----9-|
E|-------------------------------------------------------------------|

E|-------------------------------------------------------------------------|
B|-----------9-------------------------------------------------9-----------|
G|-9-11-9-11---11-9-9---------9-11-11-11-9----9---11-11-11--11---9-11-9----|
D|--------------------11-9-11--------------11---------------------------11-|
A|-------------------------------------------------------------------------|
E|-------------------------------------------------------------------------|

F#      C#          E
my love is like a flower
B       A    F#(Intro plays x4) C#               
daisies are.....always free.
E               B     A
...pulling out..the petals

F#        C#     
i wonder, 
            E     B   A
if you love me.

F#       C#        E        B      A
love me, love me,  love me, love me! 


Solo #2

E|-------------------------------------------------------------------|
B|-------------------------------------------------------------------|
G|-11-11-9-11-9-11-9---------9----9----------------------------------|
D|-------------------11-9-11---11----11-9-11-9-------------7---7-7---|
A|---------------------------------------------9--9-9--7-9---9-----9-|
E|-------------------------------------------------------------------|

E|--------------------------------------------------12---14---12----14-14-14-14|
B|-----------9-----------------------------------14---14---14---14-------------|
G|-9-11-9-11---11-9-9---------9-11-11-11-9----9--------------------------------|
D|--------------------11-9-11--------------11----------------------------------|
A|-----------------------------------------------------------------------------|
E|-----------------------------------------------------------------------------|

E|-16-14-12-12----------12-14-14-14-12-------------------------------------12--|
B|-------------14-12-14----------------14-12--12-14-12-14----------------14--14|
G|--------------------------------------------------------11--9--9---9-11------|
D|-----------------------------------------------------------------11----------|
A|-----------------------------------------------------------------------------|
E|-----------------------------------------------------------------------------|

E|-14-14-14-14-16-14-12-12----------12-14-14-14--14-12-------------------------|
B|-------------------------14-12-14--------------------14--12-14-12-14---------|
G|---------------------------------------------------------------------11--9---|
D----------------------------------------------------------------------------11|
A|-----------------------------------------------------------------------------|
E|-----------------------------------------------------------------------------|

F#                       C#
If i thought i knew the reason,
         E                  B        A
why ive gone and fallen in love with you.
F#                         C#
You're the one thing i believe in,
         E                      B           A
and i know it's time cause i've got to tell you. 

F#(Intro Plays x2)    C#
First you say it's ok,
                          E
then you say there's no way,
               B           A
then i'm making love to you.

F#                         C#    
You're the one thing i believe in,
     E
and i'll get my way,
      B             A
or i'm going to kill you.


Solo #3

E|-------------------------------------------------------------------|
B|-------------------------------------------------------------------|
G|-11--9-11--9-11-9----------9----9----------------------------------|
D|-------------------11-9-11---11----11-9-11-9-------------7---7-7---|
A|---------------------------------------------9--9-9--7-9---9-----9-|
E|-------------------------------------------------------------------|

E|--------------------------------------------------12---14---12----14-14-14-14|
B|-----------9-----------------------------------14---14---14---14-------------|
G|-9-11-9-11---11-9-9---------9-11-11-11-9----9--------------------------------|
D|--------------------11-9-11--------------11----------------------------------|
A|-----------------------------------------------------------------------------|
E|-----------------------------------------------------------------------------|

E|---16-14-12-----------12-14-14-14-12-------------------------------------12--|
B|------------14-12-14-----------------14-12--12-14-12-14----------------14--14|
G|--------------------------------------------------------11--9--9---9-11------|
D|-----------------------------------------------------------------11----------|
A|-----------------------------------------------------------------------------|
E|-----------------------------------------------------------------------------|

E|-14-14-14-14-16-14-12-12----------12-14-14-14--14-12-------------------------|
B|-------------------------14-12-14--------------------14--12-14-12-14---------|
G|---------------------------------------------------------------------11--9-9-|
D------------------------------------------------------------------------------|
A|-----------------------------------------------------------------------------|
E|-----------------------------------------------------------------------------|

     Slowly fades out _________________________________________________________
E|-----------------------------------------------------------------------------|
B|------------9----9----9-9----------------------------------------------------|
G|---9-11--11---11---11-----11-9-9--------9-11-11-11--9------------------------|
D|-11------------------------------11-9-11--------------11-9--9-11-9-----------|
A|-------------------------------------------------------------------9--9--7-9-|
E|-----------------------------------------------------------------------------|
 
  ________________________________________________________
E|-----------------------------------------------------------------------------|
B|----------9-9----9-----------------------------------------------------------|
G|-11-11-11-----11---11--11-11-9-9-9-9-9--9-8--9-8--9-8------------------------|
D|------------------------------------------------------9----------------------|
A|-----------------------------------------------------------------------------|
E|-----------------------------------------------------------------------------|

Sharing the love.

KEEP MUSIC EVIL.

            
            
Suggest correction
Creating personal tab
Creating personal tab
You can edit any tab online and save it as your Personal.

You can edit, replace or remove any tab part or add personal notes – all changes will be seen only by you.

Personal tabs can be accessed anytime from any device, even offline.
Learn more »
comments
print report bad tab
guest
You may want to rate the tab now too:
select rating
Wanna post a correction for this tab? Suggest correction