Oops, an error
Loading. Please wait.
118 views 21 this week
no commentswrite comment
1 2 3 4 5
1 last vote to show rating
add to favorites
launch autoscroll
font size
0
reset
how to read this tab
guitar tuner
Autoscroll
slow
fast
+/-
esc
set tempo
stop
Help us to improve Ultimate-Guitar.com Take our survey!
×
Author
[Verse 1]

e|-8----9--8h9p8------8-12-8---8---|--8-9-8-9-8h9p8------8--------------------|
B|-8-------------8-11--------8-11--|--8-------------11-8-11-------------------|
G|-9---------------------------9---|--9------------------9--------------------|
D|---------------------------------|------------------------------------------|
A|---------------------------------|------------------------------------------|
E|---------------------------------|------------------------------------------|

e|-8---7--6--5--4--3\2--|---------------------------------------(1)-----8-----|
B|-9---8--7--6--5--4\3--|------1------------1------------1-------1------8-----|
G|-9---8--7--6--5--4\3--|----1----1-------1----1-------1----1----1------9-----|
D|-8---7--6--5--4--3\2--|-3---------3--2---------2--1---------1--0------------|
A|----------------------|-----------------------------------------------------|
E|----------------------|-----------------------------------------------------|

e|-8----9-8------8-12---8--|--9--8h9p8------8-12---8--------------------------|
B|-8--------8-11------8-11-|-----------8-11------8-11-------------------------|
G|-9--------------------9--|-----------------------9--------------------------|
D|-------------------------|--------------------------------------------------|
A|-------------------------|--------------------------------------------------|
E|-------------------------|--------------------------------------------------|

e|-8---7--6--5--4--3\2--|-----------------------------------------------------|
B|-9---8--7--6--5--4\3--|-----1-4-3-3-2-2-2-1----------13-16-15-15-14-14-14-13|
G|-9---8--7--6--5--4\3--|---1-----------------------13------------------------|
D|-8---7--6--5--4--3\2--|-3----------------------15---------------------------|
A|----------------------|-----------------------------------------------------|
E|----------------------|-----------------------------------------------------|

[Verse 2]

e|-13---9--8-----------------|-13---10--8---------11---8--6--6----4h6p4\3/4---|
B|-10---8--8--8----6h8p6\5/6-|-13---9---8--8------8----6--6--6----------------|
G|-12---8--8--8--------------|-13---10--7--7------10---6--6--5----------------|
D|-13---------7--------------|-12---8---6--6------11--------------------------|
A|---------------------------|------------------------------------------------|
E|---------------------------|------------------------------------------------|

e|-8---8--9-11-9-8-9-8-------|------------------------------------------------|
B|---------------------11-9-8|---------------------------------5--------------|
G|---------------------------|-9-8-----------------------------5--------------|
D|---------------------------|-----11-9-8--------------------8-5--------------|
A|---------------------------|------------11-10-8-7-8-10-8-7------------------|
E|---------------------------|------------------------------------------------|

e|---------------------------------------------------------------------------|
B|---------------------------------------------------------------------------|
G|---------------------------------------------------------------------------|
D|---------------------------------------------------------------------------|
A|---------------------------------------------------------------------------|
E|---------------------------------------------------------------------------|


************************************

| x   Dead note
| g   Grace note
| (n) Ghost note
| h   Hammer-on
| p   Pull-off
| r   Release
| >   Accented note
| t   Tapping
| b   Bend
| br  Bend release
| pb  Pre-bend
| pbr Pre-bend release
| /   Slide up
| \   Slide down
| ~   Vibrato
| s   Slap
| P   Pop
| PM  Palm mute
| TR  Trill
| N   Tremolo

************************************
Suggest correction
Give kudos to tab author, rate the tab!
1 2 3 4 5
comments
print report bad tab
guest
You may want to rate the tab now too:
select rating
Wanna post a correction for this tab? Suggest correction