Oops, an error
Loading. Please wait.

Drive Like Lightning intro tab

version 1
version 1

Intro

Whole song

Interactive

4,797 views 1 this week
2 commentsread comments
1 2 3 4 5
x 5
add to favorites
×
Save as Personal and add changes to this tab that will be seen only by you. Learn more ›
×
You can save this tab as Personal to edit and correct it or add notes. All changes will be seen only by you. Learn more »
launch autoscroll
font size
0
reset
how to read this tab
guitar tuner
edit
Autoscroll
slow
fast
+/-
esc
set tempo
stop
Author
-------------------------------------------------------------------------------
Brian Setzer Orchestra-Drive Like Lightning
-------------------------------------------------------------------------------

Intro:                   .25
e|---------------------------------------------------------------------------|
B|----5-8-5-------------------------5-8-5------------------------------------|
G|-9--------7-----------------------------7-------------7--------------------|
D|-9----------9-8-7-5---7-5b----------------9-8-7-5---7-5--------------------|
A|-7------------------7-------7---------------------7------------------------|
E|---------------------------------------------------------------------------|


                        .25
e|---------------------------------------------------------------------------|
B|--5-8-5-----------------------5-8-5----------------------------------------|
G|--------7---------------------------7--------------7-----------------------|
D|----------9-8-7-5----7-5b--------------9-8-7-5---7-5-----------------------|
A|-------------------7-------7-------------------7---------------------------|
E|---------------------------------------------------------------------------|

            
            
Suggest correction
Creating personal tab
Creating personal tab
You can edit any tab online and save it as your Personal.

You can edit, replace or remove any tab part or add personal notes – all changes will be seen only by you.

Personal tabs can be accessed anytime from any device, even offline.
Learn more »
comments
print report bad tab
2 comments total.
0 reply
Chris_Parker 277 Jul 16, 2008 08:56 PM

Hey man, nice tab.

I only gave a 4 because it's missing a little bit.

Intro: .25
e|------------------------------------------------------------------|
B|----5-8-5-------------------------5-8-5---------------------------|
G|-9--------7-----------------------------7-------------7-----------|
D|-9----------9-8-7-5---7-5b----------------9-8-7-5---7-5-----------|
A|-7------------------7-------7---------------------7---------------|
E|------------------------------------------------------------------|


.25
e|------------------------------------------------------------------|
B|--5-8-5-----------------------5-8-5-------------------------------|
G|--------7---------------------------7--------------7--------------|
D|----------9-8-7-5----7-5b--------------9-8-7-5---7-5--------------|
A|-------------------7-------7-------------------7------------------|
E|------------------------------------------------------------------|

Should be:
e|-----------------------------------------------------------------|
B|---5-8-5--------------------------5-8-5---------------------------|
G|---------7-------------------------------7-------------7----------|
D|-----------9-8-7-5---7---5b----------------9-8-7-5---7-5----------|
A|-------------------7---7---7----------------------7---------------|
E|------------------------------------------------------------------|


.25
e|------------------------------------------------------------------|
B|--5-8-5-----------------------5-8-5-------------------------------|
G|--------7---------------------------7----------------7------------|
D|----------9-8-7-5----7---5b--------------9-8-7-5---7-5------------|
A|-------------------7---7---7---------------------7----------------|
E|------------------------------------------------------------------|

Then you should transpose the main lead parts (the sections that don't use the little power chords) up an octave, so that beginning 5 (E) on the B string should be a 12 (E) on the high E string, with all the notes in addition to that. Then the verse starts.

Also, start it off with a surf slide down the low E string and end it in an open Em chord |0-2-2-0-0-0| low to high.

I may make a full tab later.

0 reply
little_e 10 Feb 21, 2011 05:46 PM

this tab is not correct. this intro is played on the first position e minor blues scale using double stops and then repeated on the octive for the second part. watch the videos and see it.

guest
You may want to rate the tab now too:
select rating
Wanna post a correction for this tab? Suggest correction