Oops, an error
Loading. Please wait.

Hollywood Nocturne chords

version 2
version 2

Whole song

40 views 1 this week
no commentswrite comment
1 2 3 4 5
3 more votes to show rating
add to favorites
×
Save as Personal and add changes to this tab that will be seen only by you. Learn more ›
×
You can save this tab as Personal to edit and correct it or add notes. All changes will be seen only by you. Learn more »
launch autoscroll
font size
0
reset
transpose
0
reset
simplify chords
display chords
guitar tuner
edit
Autoscroll
slow
fast
+/-
esc
set tempo
stop
Strumming
There is no strumming pattern for this song yet. and get +5 IQ
HOLLYWOOD NOCTURNE by The Brian Setzer Orchestra

B7add+9 - x2123x

[Intro]
   Em7                     Em9
e|------------|----------|------------|-----------------|
B|-0-0---0--0-|-0-0------|-7-7---7--7-|-7-----0h5-7b--5-|
G|-7-7---7--7-|-7-7------|-7-7---7--7-|-7---------------|
D|-5-5---5--5-|-5-5------|-5-5---5--5-|-5---------------|
A|-7-7---7--7-|-7-7------|-7-7---7--7-|-7---------------|
E|------------|----------|------------|-----------------|

  Em7                          Em9                         Em7                       B7
e|-----------|--------------|-----------|--------------|-----------|-------------|----------------|---------|
B|-7--5------|----0h5-7b--5-|-7--5------|----0h5-7b--5-|-7-5-------|-4---5-7---8-|-10--10b---8h10-|-10~-----|
G|-------4---|--------------|-----------|--------------|---------4-|-------------|----------------|---------|
D|-----------|--------------|-------7---|--------------|-----------|-------------|----------------|---------|
A|-----------|--------------|-----------|--------------|-----------|-------------|----------------|---------|
E|-----------|--------------|-----------|--------------|-----------|-------------|----------------|---------|

|Em7 |Em7 |Em9 |Em9|
|Em7 |Em7 |B7  |B7 |

   B7         Am        Ammaj7      Am7     D9                Gmaj7   
e|----------|---------------------|-------------------------|------------|
B|----12-13-|-----12-13-----12-13-|---------13/15-15--13p12-|-12-12~-----|
G|----------|-14--------13--------|-12--11------------------|------------|
D|----------|---------------------|-------------------------|------------|
A|----------|---------------------|-------------------------|------------|
E|----------|---------------------|-------------------------|------------|

   G#m7     C#9        F#maj7       Gm7      C9          Fmaj7           B7add+9
e|-------------------|------------|--------------------|---------------|--------|
B|-12-12-12-12/14--9-|-9/11-11~---|-11-11-11-11/13-----|---------------|--------|
G|-------------------|------------|-----------------12-|-12/14-14~-----|--------|
D|-------------------|------------|--------------------|---------------|--------|
A|-------------------|------------|--------------------|---------------|--------|
E|-------------------|------------|--------------------|---------------|--------|

   Em7          B7add+9     Em7          B7add+9
e|------0-0---|-----------|------0-0---|----------|
B|------3-3---|-3--3--3---|------3-3---|-3--3-----|
G|------0-0---|-2--2--2---|------0-0---|-2--2-----|
D|-2---2------|-1--1--1---|-2---2------|-1--1-----|
A|-2--2-------|-2--2--2---|-2--2-------|-2--2-----|
E|-0----------|-----------|-0----------|----------|


[Verse]
                      Em7
There's a place where you can go
                Em9
Music's hot and lights are low
                      Em7
But there's something you should know
                    B7
Before the night is through

                 Em7
'Neath a buzzing neon sign
                    Em9
Dressed in style so cool and refined
                  Em7
Stands a man from some other time
                     B7
Who's calling out to you


[Chorus]
Am           Ammaj7         Am7   D9         Gmaj7
There in the night that has heard a thousand voices
G#m7        C#9      F#maj7
Whispered a thousand names
Gm7        C9       Fmaj7
Sang out a thousand love songs
   B7  B7add+9         Em7     B7add+9   
He lives his Hollywood nocturne
              Em7     B7add+9  
his Hollywood nocturne


[Instrumental]
|Em7      |Em7      |Em9      |Em9      |
|Em7      |Em7      |B7       |B7       |
|Am Ammaj7|Am7  D9  |Gmaj7    |G#m7 C#9 |
|F#maj7   |Gm7  C9  |Fmaj7    |B7add+9  |

   Bmaj7                     A7                        Bmaj7                     A7
e|-------------|-----------|-------------|-----------|-------------|-----------|-------------|-----------|
B|--7-7---4-4--|-7-7---4---|--5-5---2-2--|-5-5---2---|--7-7---4-4--|-7-7---4---|--5-5---2-2--|-5-5---2---|
G|--4-4---4-4--|-4-4---4---|--2-2---2-2--|-2-2---2---|--4-4---4-4--|-4-4---4---|--2-2---2-2--|-2-2---2---|
D|-------------|-----------|-------------|-----------|-------------|-----------|-------------|-----------|
A|-------------|-----------|-------------|-----------|-------------|-----------|-------------|-----------|
E|-------------|-----------|-------------|-----------|-------------|-----------|-------------|-----------|

   F#dim  Adim   Cdim    D#dim    F#dim
e|-2-2----5-5----8-8-|---11-11----14----|
B|-1-1----4-4----7-7-|---10-10----13----|
G|-2-2----5-5----8-8-|---11-11----14----|
D|-------------------|------------------|
A|-------------------|------------------|
E|-------------------|------------------|


|Em7      |Em7      |Em9      |Em9      |
|Em7      |Em7      |B7       |B7       |
|Em7      |Em7      |Em9      |Em9      |
|Em7      |Em7      |B7       |B7       |
|Am Ammaj7|Am7  D9  |Gmaj7    |G#m7 C#9 |
|F#maj7   |Gm7  C9  |Fmaj7    |B7add+9  |


   Em7          B7add+9     Em7          B7add+9
e|------0-0---|-----------|------0-0---|----------|
B|------3-3---|-3--3--3---|------3-3---|-3--3-----|
G|------0-0---|-2--2--2---|------0-0---|-2--2-----|
D|-2---2------|-1--1--1---|-2---2------|-1--1-----|
A|-2--2-------|-2--2--2---|-2--2-------|-2--2-----|
E|-0----------|-----------|-0----------|----------|


[Verse]
                     Em7
There's a place he'd like to go
                    Em9
Where it's cool and lights are low
                Em7
But the shadows won't let go
                        B7
They dance and call his name
                Em7
As he roams the streets at night
                Em9
Haunted by this devil sight
                 Em7
There's a man in dark red light
                     B7
Who's calling out to you


[Chorus]
Am           Ammaj7         Am7   D9         Gmaj7
There in the night that has heard a thousand voices
G#m7        C#9      F#maj7
Whispered a thousand names
Gm7        C9       Fmaj7
Sang out a thousand love songs
   B7  B7add+9         Em7     B7add+9   
He lives his Hollywood nocturne
              Em7     B7add+9  
his Hollywood nocturne
              Em7     B7add+9   Em9
his Hollywood nocturne


************************************
| h   Hammer-on
| p   Pull-off
| b   Bend
| /   Slide up
| ~   Vibrato
************************************

            
            
Suggest correction
Creating personal tab
Creating personal tab
You can edit any tab online and save it as your Personal.

You can edit, replace or remove any tab part or add personal notes – all changes will be seen only by you.

Personal tabs can be accessed anytime from any device, even offline.
Learn more »
Give kudos to tab author, rate the tab!
1 2 3 4 5
comments
print report bad tab
guest
You may want to rate the tab now too:
select rating
Wanna post a correction for this tab? Suggest correction