Oops, an error
Loading. Please wait.

Media Control Tab

349 views 1 this week
1 commentread comment
1 2 3 4 5
please rate
add to favorites
launch autoscroll
font size
0
reset
how to read this tab
guitar tuner
Tab Pro tools
  • play this tab
  • loop segment
  • change instrument
  • show fretboard
  • metronome
×
Best way to learn
"Media Control"
Autoscroll
slow
fast
+/-
esc
set tempo
stop
Contributor
Band: The Briggs
Song: Media Control
Album: Numbers
Tabber: clark@theoddmenout.com

*= mute chord

Intro:                     x2                         x1
e--2-2-2-2-2--4-4-4-4--4-4--|--2-2-2-2-2--2-2-2-2--2-2--|
B--2-2-2-2-2--2-2-2-2--2-2--|--2-2-2-2-2--4-4-4-4--4-4--|
G---------------------------|---------------------------|
D---------------------------|---------------------------|
A---------------------------|---------------------------|
E---------------------------|---------------------------|
                           x1                 x4
e--2-2-2-2-2--4-4-4-4--4-4--|--2-2-2-2-2-2-2-2--|
B--2-2-2-2-2--2-2-2-2--2-2--|--2-2-2-2-2-2-2-2--|
G---------------------------|-------------------| 
D---------------------------|-------------------|
A---------------------------|-------------------|
E---------------------------|-------------------|

Riff 1:
e----------------------------------------------|
B----------------------------------------------|
G--11-11--10-10--8-8--6-6--4-4--3-3--4-4--6-6--|
D---x--x---x--x--x-x--x-x--x-x--x-x--x-x--x-x--|
A---9--9---8--8--6-6--4-4--2-2--1-1--2-2--4-4--|
E----------------------------------------------|

e-------------------------------------------------|
B-------------------------------------------------|
G--11-11--10-10--8-8--6-6--4-4-4-4-/8-8-/6--6-6-6-|
D---x--x---x--x--x-x--x-x--x-x-x-x-/x-x-/x--x-x-x-|
A---9--9---8--8--6-6--4-4--2-2-2-2-/6-6-/4--4-4-4-|
E-------------------------------------------------|

Verse 1:
B            C#         F#
What are you willing to fight?
        B           C#       F#
Are you afraid that you just might
     B              C#      F#
Find something that you're afraid of
    B        C#
And run away in fright
       B*          C#*        F#*
Well I ain't gonna take it anymore (what do you say?)
        B*               C#*             F#*
Cause I know what you're ****ing with me for (what do you say?)
       B*        C#*     F#*              B                  C#
You're trying to keep me down from seeing what's beyond that door

Chorus:
    F#       C#           B
The truth is not what you see, Media Control!
F#      C#        B
Selling chaos on TV, Media Control!
    F#       C#           B
The truth is not what you see, Media Control!
F#      C#        B
Selling chaos on TV, but don't think you fooled me!

Riff 1, Riff 2

Verse 2:
             B              C#             F#
You know the words but, you can't sing the tune
   B        C#           F#
1939 it all happened too soon
        B         C#       F#
But you played it like you meant to lose
              B               C#
You tied your fate right in a noose
       B*     C#*    F#*
But if sanity is my TV (what do you say?)
       B*                C#*         F#*
Than I don't know what's happened to me (what do you say?)
     B*         C#*       F#*
Your lies are a billboard telling me
     B              C#
That I can't really see

Chorus x1

Solo:
e--2-2-2-2-2-2-2-2--4-4-4-4-4-4-4-4--2-2-2-2-2-2-2-2--2-2-2-2-2-2-2-2--|
B--2-2-2-2-2-2-2-2--2-2-2-2-2-2-2-2--2-2-2-2-2-2-2-2--4-4-4-4-4-4-4-4--|
G----------------------------------------------------------------------|
D----------------------------------------------------------------------|
A----------------------------------------------------------------------|
E----------------------------------------------------------------------|

e--2-2-2-2-2-2-2-2--4-4-4-4-4-4-4-4--4-4-4-4-4-4-4-4--9--9--9--9--9--9---|
B--2-2-2-2-2-2-2-2--2-2-2-2-2-2-2-2--6-6-6-6-6-6-6-6--11-11-11-11-11-11--|
G------------------------------------------------------------------------|
D------------------------------------------------------------------------|
A------------------------------------------------------------------------|
E------------------------------------------------------------------------|
                           x3 
e--14----14----16p14--------|--14----14------------|
B----h16---h16-------16p14--|----h16---h16--12-11--|
G---------------------------|----------------------|
D---------------------------|----------------------|
A---------------------------|----------------------|
E---------------------------|----------------------|

e--14----14----16p14--------|------------------------------------------|
B----h16---h16-------16p14--|--16p14--14-12--14-12-11-9-7-6-4-2--------|
G---------------------------|-----------------------------------4p3----|
D---------------------------|---------------------------------------4--|
A---------------------------|------------------------------------------|
E---------------------------|------------------------------------------|
(the solo is kinda crazy so this isn't perfect, but it's close and gives  you the general idea of it)

Bridge:
D#             B       C#               F#
I wont take to long to tell you all so long
D#      B           B*           C#*     
I ain't ever coming back, coming back

Chorus x1

Riff 1 x2 (with "Don't think you fooled me")

End on F#

That's it! For suggestions, corrections, and requests, email me:
                   oddmenout4@yahoo.com
comments
We did not receive enough feedback on this tab! Please rate:
print report bad tab
1 2 3 4 5
1 comment total.
0 reply
gitar_norge wrote on April 13 2006, 07:13 am

good

I want to post or [tab]
guest
You may want to rate the tab now too:
select rating
Please do not post tabs as comments. Select "correction" instead!