Oops, an error
Loading. Please wait.

Historys Stranglers bass

1,842 views 3 this week
no commentswrite comment
1 2 3 4 5
2 more votes to show rating
add to favorites
×
Save as Personal and add changes to this tab that will be seen only by you. Learn more ›
×
You can save this tab as Personal to edit and correct it or add notes. All changes will be seen only by you. Learn more »
launch autoscroll
font size
0
reset
guitar tuner
edit
Autoscroll
slow
fast
+/-
esc
set tempo
stop
Difficulty
intermediate
The BronXXX	
History Stranglers

Standard Bass Tuning
EADG low to high
for you who don't know

** strum 12 times
* strum 6 times
# strum 3 times

Intro/Verse

G|----------------------------------------------------|
D|------------------------0*-0h220h22-----------------| x2
A|2*-5-2*-2*-5-2*-2*-5-2*-----------------------------|
E|----------------------------------------------------| 

for the intro, verse, and chorus either throw up the treble all the way for the song
OR use a little bit of distortion just for the verse

Pre-Chorus 

G|----------------------------------------------------|
D|----------------------------------------0h2*--------| x4
A|1-1-1-10--1-1-1-1000--1-1-1-10--1-1-1-1-------------|
E|----------------------------------------------------|

Chorus 

G|----------------------------------------------------|
D|------------------------0*-0h220h22-----------------| x2
A|2*-5-2*-2*-5-2*-2*-5-2*-----------------------------|
E|----------------------------------------------------| 


Post-Chorus 
** strum 12 times

G|----------------------------------------------------|
D|-----022022------022022------022022-2**-------------|
A|22-2--------22-2--------22-2------------------------|
E|----------------------------------------------------| 




Intro (00:00) x2
Verse (00:15) x4
Pre-Chorus (00:44) x4
Chorus (00:52) x4
Post-Chorus (01:14) x1
Verse (01:21) x3
Pre-Chorus (01:43) x4
Chorus (01:51) x4
Post Chorus (02:20) x3


That is all kids. Fun song to play.
Make sure you buy the CD. 
Amazing.

            
            
Suggest correction
Creating personal tab
Creating personal tab
You can edit any tab online and save it as your Personal.

You can edit, replace or remove any tab part or add personal notes – all changes will be seen only by you.

Personal tabs can be accessed anytime from any device, even offline.
Learn more »
Give kudos to tab author, rate the tab!
1 2 3 4 5
comments
print report bad tab
guest
Wanna post a correction for this tab? Suggest correction