Oops, an error
Loading. Please wait.

Get The Funk Out Of My Face Bass Tab

12,445 views 33 this week
1 commentread comment
1 2 3 4 5
please rate
add to favorites
launch autoscroll
font size
0
reset
guitar tuner
Tab Pro tools
  • play this tab
  • loop segment
  • change instrument
  • show fretboard
  • metronome
×
Best way to learn
"Get The Funk Out Of My Face"
Autoscroll
slow
fast
+/-
esc
set tempo
stop
Get the Funk Out ma Face -Brothers Johnson
-----------------------------------------------------------------

Tabbed By : Whitebutfunky (Mike)
e-mail: Wannebom@live.com

Tuning: E-A-D-G

Note- When playing this song cover up the E string after playing every open E note so 
it doesn't keep ringing.


G|----------------------------------------------4h6-----------------|
D|------------------------------------------------------------------|
A|------------------------------5h7--------5h7-------5h7------------|
E|---xx-3/12\-0--00-0-0-0-00-------5h7--0------------------0-x0-x---|

G|--4h6-----------------4h6---------------4h6 ---------------4h7---------4h7--|
D|------7p5----------------------------------7p5------------------------------|
A|----------5h7---------------5h7---------------5h7-----5h7----5h7------------|
E|---------------0-x0------0-------0-x0------------0-x0------------0-x0-------|

G|------------------------------------------------------------------------|
D|-----3h5-3-5-------------------3-3-5------------------------------------|
A|------------1-----------1---/5-------1--<3>--1--------------------------|
E|-\12----------3-1--3-1-3--3-----------3-----3---3--1--0h1---------------|

G|---------------------------5h7-5-3----------------------------------|
D|--3h5-3-5-------------------------3h5-5-----5--------3--------------|
A|----------1------------1---------------1----------------------------|
E|------------3-1--3-1-3--3----------------33---0h1-0h1--0h1----------|

G|--------------------------------------------------------------------|
D|--3h5-3-5-------------------3-3-5-----------------------------------|
A|---------1-----------1---/5-------1--<3>--1-------------------------|
E|-----------3-1--3-1-3--3-----------3-----3--3--1--0h1---------------|

G|---------------------------5h7-5-3--------------------------------------|
D|--3h5-3-5-------------------------3h5-5-----5---------------------------|
A|----------1------------1---------------1--------------------------------|
E|------------3-1--3-1-3--3----------------33---0h1-0h1-3/12\-------------|

G|-------------------------4h6-------------7h9-------------7h9-------------|
D|----------------------------7p5-----------------------------7p5----------|
A|---------------5h7-------------5h7---------------5h7-----------5h7-------|
E|--0-x0-xx-0-x0----0-x0-x-----------0-x0-x----0-x-----0--x0---------------|

G|------7h9--------------4h6------------7h9---------------------------------|
D|--------------------------7p5---------------5h7---------------------------|
A|---------------5h7-----------5h7---------5h7--------5h7-------------------|
E|-0-x0-----x0-x----0-x0-----------0-x0----------0-x0-----3/12\-------------|

G|--------------------------------------------------------------------|
D|--3h5-3-5-------------------3-3-5---------------5-------------------|
A|---------1-----------1---/5-------1--<3>--1-------------------------|
E|-----------3-1--3-1-3--3-----------3-----3--3----0h1----------------|

G|---------------------------5h7-5-3---------------------------------------|
D|--3h5-3-5-------------------------3h5-5-----5---------3------------------|
A|----------1------------1---------------1---------------------------------|
E|------------3-1--3-1-3--3----------------33---0h1-0h1---0h1--------------|

G|--------------------------------------------------------------------|
D|--3h5-3-5-------------------3-3-5-----------------------------------|
A|---------1-----------1---/5-------1--<3>--1-------------------------|
E|-----------3-1--3-1-3--3-----------3-----3--3--x--0h1---------------|

G|---------------------------55h7-5-3---------------------------------------|
D|--3h5-3-5--------------------------3h5-5-----5---------3------------------|
A|----------1------------1----------------1---------------------------------|
E|------------3-1--3-1-3--3-----------------33---0h1-0h1---0h1--------------|

G|----------------------------------------------<5>>-3--------------|
D|--3h5-3-5-------------------3-3-5---------------------------------|
A|---------1-----------1---/5-------1--<3>>-------------------------|
E|-----------3-1--3-1-3--3-----------3------------------0h1---------|

G|---------------------------5h7-5-3----------------------------------|
D|--3h5-3-5-------------------------3h5-5-----5---------3-------------|
A|----------1------------1---------------1----------------------------|
E|------------3-1--3-1-3--3----------------33---0h1-0h1---0h1---------|

G|------------------------------------------------------------------|
D|--3h5-3-5-------------------3-3-5---------------------------------|
A|---------1-----------1---/5-------1--<3>--1-----------------------|
E|-----------3-1--3-1-3--3-----------3-----3--3--x--0h1-------------|

G|---------------------------5h7-5-3----------------------------------|
D|--3h5-3-5-------------------------3h5-5----3h5----------------------|
A|----------1------------1---------------1----------------------------|
E|------------3-1--3-1-3--3----------------33-------------------------|

   hope this tab helps you. Enjoy!


| < > bend
| /  slide up
| \  slide down
| h  hammer-on
| p  pull-off
| ~  vibrato
| +  harmonic
| x  Mute note
comments
We did not receive enough feedback on this tab! Please rate:
print report bad tab
1 2 3 4 5
1 comment total.
0 reply
amazingandrew wrote on July 27 2015, 09:59 pm

didn't like this contribution

I want to post or [tab]
guest
You may want to rate the tab now too:
select rating
Please do not post tabs as comments. Select "correction" instead!