Oops, an error
Loading. Please wait.

I Want You Bass Tab

269 views 1 this week
no commentswrite comment
1 2 3 4 5
3 more votes to show rating
add to favorites
launch autoscroll
font size
0
reset
guitar tuner
Autoscroll
slow
fast
+/-
esc
set tempo
stop
Help us to improve Ultimate-Guitar.com Take our survey!
×
Author
Difficulty
intermediate
I Want You by The Brothers Johnson

Tabbed by: NatDuv@Gmail.com
Tuning: Standard

Note: Maybe some error in the play order. Just adjust if you hear an error. And the 
bridge may also be incorrect.

Intro

G|----------|
D|----------|
A|----------|
E|-1----3/5-|

Verse/Chorus

G|---------------------------------------------------------------|
D|-------------------------32------------------------------------|
A|---------78------75-3535---------------------------------------|
E|-3/5-5578----11--------------00—3h5----------------------------|


Pre-Chorus

G|---------------------------------------------------------------|
D|-----------7-5-3------------5---5-5----------------------------|
A|-3h7-8-7-5-------3h7-8-7-5----5--------------------------------|
E|---------------------------------------------------------------|

Bridge

G|---------------------------------------------------------------|
D|---------------------------------------------------------------|
A|-------------3--5—7-7-8----------------------------------------|
E|--5--5--3--1---------------------------------------------------|

Breakdown

G|---------------------------------------------------------------|
D|---------------------------------------------------------------|
A|-------------------------------35555555555555578888888888888888|
E|5555555555555531111111111111111--------------------------------|



| /  slide up
| h  hammer-on

Play Order
Intro
Verse (x4)
Pre-Chorus
Chorus(x8)
Verse (x4)
Pre-Chorus(x2)
Verse (x4)
Bridge (x2)
After Chorus (x4)
Suggest correction
Give kudos to tab author, rate the tab!
1 2 3 4 5
comments
print report bad tab
guest
You may want to rate the tab now too:
select rating
Wanna post a correction for this tab? Suggest correction