Oops, an error
Loading. Please wait.

Stomp bass

26,508 views 54 this week
no commentswrite comment
1 2 3 4 5
x 8
add to favorites
×
Save as Personal and add changes to this tab that will be seen only by you. Learn more ›
×
You can save this tab as Personal to edit and correct it or add notes. All changes will be seen only by you. Learn more »
launch autoscroll
font size
0
reset
guitar tuner
backing track
0:00
0:00
edit
Autoscroll
slow
fast
+/-
esc
set tempo
stop
Author
Stomp - The Brothers Johnson
Tuning: EADG

this song is really funky brothers johnson and is really fun to play on bass. I'm not 
sure what he plays in the bass solo but i still tabbed something thats pretty close like it.

the order goes like this....

[Intro]
[Pre-Verse]
[Verse] x6
[Bridge]
[Chorus]
[Pre Verse] x2
[Verse] x6
[Chorus] x2
[Slap solo]
[Guitar Solo]
[Chorus] (let ring at end note)
[Chorus] x2
[Outro]

ENJOY!

[Intro]

G|-----------------|-----------------|-----------------|-----------------|
D|-5------3--------|-----------------|-----------------|-5------3--------|
A|----------6------|------5--3-------|------5--6-------|----------6------|
E|-----------------|-----------------|-----------------|-----------------|

G|-----------------|-----------------|-----------------|
D|-----------------|-----------------|-------3---------|
A|---6---333-------|------5--666-----|----6----3-------|
E|-----------------|-----------------|---------------1-|


[Pre-Verse:]

G|----------33-----|------------53---|
D|---3-5-----------|-----3-5---------|
A|-----------------|-----------------|
E|-3-----3--------0|1/3-------3------|


[Verse]

G|----------33-----|------------53---|
D|---3-5-----------|-----3-5---------|
A|-----------------|-----------------|
E|-3-----3--------0|1/3-------3------|


[Bridge]

G|-----------------|-----------------|-----------------|-----------------|
D|--2--------------|-----------------|----0h1---2------|-----------------|
A|-----0-2---------|--0--3-0-5-------|0h1---------0-2--|-0h2----3-0-5----|
E|-----------------|-----------------|-----------------|-----------------|

G|-----------------|-----------------|---7---7---7---7-|---8---8---8--8--|
D|----0h1---2------|-----------------|-----------------|-----------------|
A|0h1----------02--|0--3-0-2----034--|-5---5---5---5---|-6---6---6---6---|
E|-----------------|-----------------|-----------------|-----------------|


[Chorus]

G|-----------------|-----------------|-----------------|-----------------|
D|-5-3-5-3---------|-----------------|-----------------|----------3-3-5-3|
A|----------6-6----|-5-6-5-6-5---3-3-|-1-3-5---6-6-----|-5-6-5-6---------|
E|-----------------|-----------------|-----------------|-----------------|

G|-----------------|-----------------|-----------------|-----------------|
D|-5-3-5-3---------|-----------------|-----------------|----------3------|
A|----------6-6----|-5-6-5-6-5---3-3-|-1-3-5---6-6-----|-5-6-5-6----3----|
E|-----------------|-----------------|-----------------|-----------------|


[Slap Bass Solo:]

G|--0--0--0--3----|--0--0--0-3------|--0--0--0--5-----|--0---0----5----3|
D|------------3h5-|--------------3h5|-----------------|-----------------|
A|----------------|-----------3h5---|-------------3h5-|----------3---1--|
E|3x-3--3---------|3x-3--3----------|3x-3--3----------|3x--3------------|

G|--0--0--0--3----|--0--0--0-3------|--0--0--0--5-----|--0---0---0---0--|
D|------------3h5-|--------------3h5|-----------------|-----------------|
A|----------------|-----------3h5---|-------------3h5-|-----------------|
E|3x-3--3---------|3x-3--3----------|3x-3--3----------|3x--3---3---3----|


[Guitar Solo:]

G|----5---3-x3-3h5-|----5---3-x3-3h5-|---5--3-x3-3h5-|----5--3-x3--3h5-|
D|-----------------|-----------------|---------------|-----------------|
A|-33---3---------0|-33---3---------0|-33--3--------0|-33--3----------0|
E|-----------------|-----------------|---------------|-----------------|


[Outro]

G|---------/17-15--|----------------|---------/17-15--|-----------------|
D|---------------17|-53-----------5-|-3-34----------17|-53------------5-|
A|-----------------|---5------------|-----------------|---5-------------|
E|-----------------|----3------033-0|-----------------|----3-------033-0|

G|---------/17-15--|
D|-3-34----------17|
A|-----------------|
E|-----------------|

After a while the the outro riff starts to fade out.

So there you are. If you have any troubles or would like to suggest something just email me.

adrian_acmilan_@hotmail.com



************************************

| /  Slide up
| h  Hammer-on
| x  Dead note

************************************

            
            
Suggest correction
Creating personal tab
Creating personal tab
You can edit any tab online and save it as your Personal.

You can edit, replace or remove any tab part or add personal notes – all changes will be seen only by you.

Personal tabs can be accessed anytime from any device, even offline.
Learn more »
comments
print report bad tab
guest
You may want to rate the tab now too:
select rating
Wanna post a correction for this tab? Suggest correction