Oops, an error
Loading. Please wait.

Till The End Tab

1,049 views 6 this week
no commentswrite comment
1 2 3 4 5
please rate
add to favorites
launch autoscroll
font size
0
reset
how to read this tab
guitar tuner
Tab Pro tools
  • play this tab
  • loop segment
  • change instrument
  • show fretboard
  • metronome
×
Best way to learn
"Till The End"
Autoscroll
slow
fast
+/-
esc
set tempo
stop
Contributor
Difficulty
novice
"Till The End" by The Bruisers

Intro (palm muted up until the A chord at the end of the intro. The verse is the same as 
intro, but not palm muted).

e:------------------------------------|------------------------------------|
b:------------------------------------|------------------------------------|
g:77777777----------44444444----------|77777777----------44444444----------|
D:77777777-44444444-44444444-55555555-|77777777-44444444-44444444-777777777|
A:55555555-44444444-22222222-55555555-|55555555-44444444-22222222-777777777|
E:---------22222222----------33333333-|---------22222222----------555555555|

Pre-chorus (Hold the D chord for a little bit)

e:-----------------------|
b:-----------------------|
g:7-----66/4-4-2---------|
D:7-----66/4-4-2-5--55-7-|
A:5-----44/2-2-0-5--55-7-|
E:---------------3--33-5-|

Chorus

e:---------------------------------------|
b:---------------------------------------|
g:77777-------------77777-77777----------|
D:77777-55555-77777-77777-77777-55555-77-|
A:55555-55555-77777-55555-55555-55555-77-|
E:------33333-55555-------------33333-55-|

Bridge

e:------------------------------------------------|
b:------------------------------------------------|
g:----------------------------------------7777777-|
D:99-----7-----5-7-9-----99-----7-----5-7-7777777-|
A:99-----7-----5-7-9-----99-----7-----5-7-5555555-|
E:77-----5-----3-5-7-----77-----5-----3-5---------|

That should be all. Listen to the song a few times or while you're playing to get the 
down. Mine might be off, but it sounds solid to me.
comments
We did not receive enough feedback on this tab! Please rate:
print report bad tab
1 2 3 4 5
I want to post or [tab]
guest
You may want to rate the tab now too:
select rating
Please do not post tabs as comments. Select "correction" instead!