Oops, an error
Loading. Please wait.

Are You There With Another Girl bass

19 views 1 this week
no commentswrite comment
1 2 3 4 5
3 more votes to show rating
add to favorites
×
Save as Personal and add changes to this tab that will be seen only by you. Learn more ›
×
You can save this tab as Personal to edit and correct it or add notes. All changes will be seen only by you. Learn more »
launch autoscroll
font size
0
reset
guitar tuner
edit
Autoscroll
slow
fast
+/-
esc
set tempo
stop
Author
Difficulty
Tabbed by: 6METAL6BASSIST6
E-mail: petergriffinav@gmail.com

Tuning: EADG

G|----------------------------------------------------------------|
D|8-----------8---8-----------8---8-----------8---8---8-------8---|
A|----------------------------------------------------------------|
E|----------------------------------------------------------------|

G|----------------------------------------------------------------|
D|8-----------8---8---8-------8---8-----------8---8---8-------8---|
A|----------------------------------------------------------------|
E|----------------------------------------------------------------|

0:09

G|----------------------------------------------------------------|
D|8-----------8---8---8-------8---8-----------8---8---8-------8---|
A|----------------------------------------------------------------|
E|----------------------------------------------------------------|

G|----------------------------------------------------------------|
D|8-----------8---8---8-------8---7-----------7---7---7-------7---|
A|----------------------------------------------------------------|
E|----------------------------------------------------------------|

G|--------------------------------|
D|7-----------7---7---7---7---7---|
A|--------------------------------|
E|--------------------------------|

G|----------------------------------------------------------------|
D|8-----------8---8---8-----------8-----------8---8---8-----------|
A|----------------------------8-------------------------------8---|
E|----------------------------------------------------------------|

G|----------------------------------------------------------------|
D|8-----------8---8---8-------8---7-----------7---7---7-----------|
A|------------------------------------------------------------7---|
E|----------------------------------------------------------------|

G|--------------------------------|
D|7-----------7---7-------7-------|
A|--------------------------8-\---|
E|--------------------------------|

0:30

G|----------------------------------------------------------------|
D|--------------------------3-----5-----------5---5-------5-3-----|
A|5-----------5---5-------5---------------------------------------|
E|----------------------------------------------------------------|

G|----------------------------------------------------------------|
D|--------------------------3-----5-----------5-----------5-------|
A|5-----------5---5-------5-----------5---------------5-------5---|
E|----------------------------------------------------------------|

G|--------------------------------------------------------|
D|----5-----------5---5-----------------------------------|
A|------------5-----5-----3---3---3---3---3---3---3---3---|
E|--------------------------------------------------------|

G|----------------------------------------------------------------|
D|----------------------------------------------------------------|
A|3---3---3---3---3---3---3---3---3---3---3---3---3-------3-------|
E|----------------------------------------------------------------|

0:45

G|----------------------------------------------------------------|
D|8-----------8---8---8-----------8-----------8---8---8-----------|
A|----------------------------8-------------------------------8---|
E|----------------------------------------------------------------|

G|----------------------------------------------------------------|
D|8-----------8---8---8-------8---7-----------7---7---7-----------|
A|------------------------------------------------------------7---|
E|----------------------------------------------------------------|

G|--------------------------------|
D|7-----------7---7---7-------7---|
A|--------------------------------|
E|--------------------------------|

G|----------------------------------------------------------------|
D|8-----------8---8---8-----------8-----------8---8---8-----------|
A|----------------------------8-------------------------------8---|
E|----------------------------------------------------------------|

G|----------------------------------------------------------------|
D|8-----------8---8---8-------8---7-----------7---7---7-----------|
A|------------------------------------------------------------7---|
E|----------------------------------------------------------------|

G|--------------------------------|
D|7-----------7---7-------7-------|
A|--------------------------8-\---|
E|--------------------------------|

1:06

G|----------------------------------------------------------------|
D|--------------------------3-----5-----------5---5-------5-3-----|
A|5-----------5---5-------5---------------------------------------|
E|----------------------------------------------------------------|

G|----------------------------------------------------------------|
D|--------------------------3-----5-----------5-----------5-------|
A|5-----------5---5-------5-----------5---------------5-------5---|
E|----------------------------------------------------------------|

G|--------------------------------------------------------|
D|----5-----------5---5-----------------------------------|
A|------------5-----5-----3---3---3---3---3---3---3---3---|
E|--------------------------------------------------------|

1:19

G|----------------------------------------------------------------|
D|----------------------------------------------------------------| x3
A|3---3---3---3---3---3---3---3---3---3---3---3---3---3---3---3---|
E|----------------------------------------------------------------|

G|----------------------------------------------------------------|
D|8-----------8---8---8-------8---8-----------8---8---8-------8-\-|
A|----------------------------------------------------------------|
E|----------------------------------------------------------------|

1:36

G|----------------------------------------------------------------|
D|----------------------------6---4-----------4---4---4-------6---|
A|4-----------4---4---4-------------------------------------------|
E|----------------------------------------------------------------|

G|----------------------------------------------------------------|
D|----------------------------6---4-----------4---4---4-------4---|
A|4-----------4---4---4-------------------------------------------|
E|----------------------------------------------------------------|

G|----------------------------------------------------------------|
D|8-----------8---8---8-------8-----------------------------------|
A|--------------------------------6-----------6---8-------6-8-\---|
E|----------------------------------------------------------------|

1:48

G|----------------------------------------------------------------|
D|--------------------------3-----5-----------5---5-------5-3-----|
A|5-----------5---5-------5---------------------------------------|
E|----------------------------------------------------------------|

G|----------------------------------------------------------------|
D|--------------------------------5-----------5-----------5-------|
A|5-----------5---5-------5-----------5---------------5-------5---|
E|----------------------------5-----------------------------------|

G|--------------------------------------------------------|
D|----5-----------5---5-----------------------------------|
A|------------5-----5-----3-----------3---3---3-------3---|
E|--------------------------------------------------------|

G|----------------------------------------------------------------|
D|----------------------------------------------------------------|
A|3-----------3---3---3-------3---3-----------3---3---3-------3---|
E|----------------------------------------------------------------|

2:01

G|----------------------------------------------------------------|
D|----------------------------------------------------------------|
A|1-----------1---1---1-------1---1-----------1---1---1-------1---|
E|----------------------------------------------------------------|

G|----------------------------------------------------------------|
D|----------------------------------------------------------------|
A|3-----------3---3---3-------3---3-----------3---3---3-------3---|
E|----------------------------------------------------------------|

G|----------------------------------------------------------------|
D|----------------------------------------------------------------|
A|1-----------1---1---1-------1---1-----------1---1---1-------1---|
E|----------------------------------------------------------------|

G|----------------------------------------------------------------|
D|----------------------------------------------------------------|
A|3-----------3---3---3-------3---3-----------3-----------3-------|
E|------------------------------------3---------------3-------3---|

2:21

G|----------------------------------------------------------------|
D|----------------------------------------------------------------|
A|1-----------1---1---1-------1---1-----------1---1---1-------1---|
E|----------------------------------------------------------------|

G|----------------------------------------------------------------|
D|----------------------------------------------------------------|
A|3-----------3---3---3-------3---3-----------3---3-------3-------|
E|----------------------------------------------------3-------3---|

G|----------------------------------------------------------------|
D|----------------------------------------------------------------|
A|1-----------1---1---1-------1---1-----------1---1---1-------1---|
E|----------------------------------------------------------------|

2:33

G|----------------------------------------------------------------|
D|1-----------1---1---1-------1---1-----------1---1---1-------1---|
A|----------------------------------------------------------------|
E|----------------------------------------------------------------|

G|----------------------------------------------------------------|
D|----------------------------------------------------------------|
A|1-----------1---1---1-------1---1-----------1---1---1-------1---|
E|----------------------------------------------------------------|

G|--------------------------------------------------------3-------|
D|1-----------1---1---1-------1---1-----------1---1---------3-----|
A|------------------------------------------------------------1---|
E|----------------------------------------------------------------|

G|------------------------------------------------------------------------------------|
D|----------------------------------------------------------------1-----------1---1---| fades out here.
A|1-----------1---1---1-------1---1-----------1---1---1-------1-----------------------|
E|------------------------------------------------------------------------------------|
Suggest correction
Creating personal tab
Creating personal tab
You can edit any tab online and save it as your Personal.

You can edit, replace or remove any tab part or add personal notes – all changes will be seen only by you.

Personal tabs can be accessed anytime from any device, even offline.
Learn more »
Give kudos to tab author, rate the tab!
1 2 3 4 5
comments
print report bad tab
guest
You may want to rate the tab now too:
select rating
Wanna post a correction for this tab? Suggest correction