Oops, an error
Loading. Please wait.

Ride Or Die Bass Tab

703 views 3 this week
no commentswrite comment
1 2 3 4 5
please rate
add to favorites
launch autoscroll
font size
0
reset
guitar tuner
Tab Pro tools
  • play this tab
  • loop segment
  • change instrument
  • show fretboard
  • metronome
×
Best way to learn
"Ride Or Die"
Autoscroll
slow
fast
+/-
esc
set tempo
stop
Contributor
Difficulty
intermediate
Song: Ride Or Die
Album: The Budos Band II
Artist: The Budos Band

For a five string: This song is in standard tuning (B,E,A,D,G)
For a four string: This song is in drop D tuning (D,A,D,G)

I'm writing both the five string and four string versions, the five string version is first.

G---------|
D---------|
A-----2~--|
E--3------|
B---------|

G--------------------------------|
D--------------------------------|
A-------------2--2---------------|
E--0--0--1-1---------3-3---------|
B------------------------3-------| Repeat until 0:54

0:54
G-------------------|
D-------------------|
A-------------------|
E-------00000-------|
B-------------------|

G----------------9-7----------------------------------|
D-----5--7--7\9-------9-7-----------------------------|
A--7-----------------------9--9----9-----9-9--9-9-----|
E-------------------------------9-----9---------------| Repeat 3x
B-----------------------------------------------------|

G----------------9-7----------------------------------|
D-----5--7--7\9-------9-7-----------------------------|
A--7-----------------------9--9----9------9-----------|
E-------------------------------9--------9------------|
B-----------------------------------------------------|

1:32
G--------------------------------|
D--------------------------------|
A-------------2--2---------------|
E--0--0--1-1---------3-3---------|
B------------------------3-------| Repeat 6x

2:00
G-------2-------------757-5----------------|
D----------3--2-------------757-5--3-------|
A--5-5---------0--5-5----------------------|
E------------------------------------------|

G--------------------------------|
D--------------------------------|
A-------------2--2---------------|
E--0--0--1-1---------3-3---------|
B------------------------3-------| Repeat 2x

2:17
G-------------------|
D-------------------|
A-------------------|
E-------00000-------|
B-------------------|

2:20
G--------------------------------|
D--------------------------------|
A-------------2--2---------------|
E--0--0--1-1---------3-3---------|
B------------------------3-------| Repeat until 2:55

2:55
G-------2-------------757-5----------------|
D----------3--2-------------757-5--3-------|
A--5-5---------0--5-5----------------------|
E------------------------------------------|

G--------------------------------|
D--------------------------------|
A-------------2--2---------------|
E--0--0--1-1---------3-3---------|
B------------------------3-------| Repeat 2x

3:15
G-------------------|
D-------------------|
A-------------------|
E-------22222-------|
B-------------------| Repeat 6x

|-----------------------END OF FIVE STRING TAB----------------------------|

Drop D Four String Tab

G---------|
D---------|
A-----2~--|
D--5------|

G--------------------------------|
D--------------------------------|
A-------------2--2---------------|
D--2--2--3-3--------5-5--0-------| Repeat until 0:54

0:54
G-------------------|
D-------------------|
A-------------------|
D-------22222-------|

G--------------------------------------------------------------|
D----------------9-7-------------------------------------------|
A-----5--7--7\9-------9-7--------------------------------------|
D--9-----------------------11--11-7---11----7-11-11--11-11-----| Repeat 3x

G-----------------------------------------------------------|
D----------------9-7----------------------------------------|
A-----5--7--7\9-------9-7-----------------------------------|
D--9-----------------------11--11-7---11-7-----11-----------|

1:32
G--------------------------------|
D--------------------------------|
A-------------2--2---------------|
D--2--2--3-3--------5-5--0-------| Repeat 6x

2:00
G------------------------------------------|
D-------5--3--1--------757-5---------------|
A--5-5---------0--5-5---------757-5--3-----|
D------------------------------------------|

G--------------------------------|
D--------------------------------|
A-------------2--2---------------|
D--2--2--3-3--------5-5--0-------| Repeat 2x

2:17
G-------------------|
D-------------------|
A-------------------|
D-------22222-------|

2:20
G--------------------------------|
D--------------------------------|
A-------------2--2---------------|
D--2--2--3-3--------5-5--0-------| Repeat until 2:55

2:55
G------------------------------------------|
D-------5--3--1--------757-5---------------|
A--5-5---------0--5-5---------757-5--3-----|
D------------------------------------------|

G--------------------------------|
D--------------------------------|
A-------------2--2---------------|
D--2--2--3-3--------5-5--0-------| Repeat 2x

3:15
G-------------------|
D-------------------|
A-------------------|
D-------22222-------| Repeat 6x

Tabbed by: Max Dietz
comments
We did not receive enough feedback on this tab! Please rate:
print report bad tab
1 2 3 4 5
I want to post or [tab]
guest
You may want to rate the tab now too:
select rating
Please do not post tabs as comments. Select "correction" instead!