Oops, an error
Loading. Please wait.

Unbroken Unshaven Tab

22 views 1 this week
no commentswrite comment
1 2 3 4 5
3 more votes to show rating
add to favorites
launch autoscroll
font size
0
reset
how to read this tab
guitar tuner
Autoscroll
slow
fast
+/-
esc
set tempo
stop
Help us to improve Ultimate-Guitar.com Take our survey!
×
Author
Difficulty
intermediate
The Budos Band - Unbroken Unshaven

Tab by Bastien

Standard tuning
Tempo = 115
Shuffle

This is the intro, but the whole song is almost the same as the intro 

[Intro] 
       Cm/G
e|--x--3--3--3--x--3--3--3----|----------------------------|
B|--x--4--4--4--x--4--4--4----|----------------------------|
G|--x--5--5--5--x--5--5--5----|----------------------------|
D|--x--5--5--5--x--5--5--5----|----------------------------|
A|--x--3--3--3--x--3--3--3----|--x--5--5--5--x--5--5--5----|
E|--x--3--3--3--x--3--3--3----|--x--1--1--1--x--1--1--1----|

      Cm/G
e|--x--3--3--3--x--3--3--3----|----------------------------|
B|--x--4--4--4--x--4--4--4----|----------------------------|
G|--x--5--5--5--x--5--5--5----|----------------------------|
D|--x--5--5--5--x--5--5--5----|----------------------------|
A|--x--3--3--3--x--3--3--3----|--x--5--5--5--x--5--5--5----|
E|--x--3--3--3--x--3--3--3----|--x--1--1--1--x--1--1--1----|

      Cm/G                         Abdim7
e|--x--3--3--3--x--3--3--3----|--x-----------x-------------|
B|--x--4--4--4--x--4--4--4----|--x--6--6--6--x--6--6--6----|
G|--x--5--5--5--x--5--5--5----|--x--4--4--4--x--4--4--4----|
D|--x--5--5--5--x--5--5--5----|--x--6--6--6--x--6--6--6----|
A|--x--3--3--3--x--3--3--3----|--x--5--5--5--x--5--5--5----|
E|--x--3--3--3--x--3--3--3----|--x--4--4--4--x--4--4--4----|

      Cm/G
e|--x--3--3--3--x--3--3--3----|----------------------------||
B|--x--4--4--4--x--4--4--4----|----------------------------||
G|--x--5--5--5--x--5--5--5----|----------------------------||
D|--x--5--5--5--x--5--5--5----|----------------------------||
A|--x--3--3--3--x--3--3--3----|--x--5--5--5--x--5--5--5----||
E|--x--3--3--3--x--3--3--3----|--x--1--1--1--x--1--1--1----||
 
************************************

| x  Dead note 

************************************
Suggest correction
Give kudos to tab author, rate the tab!
1 2 3 4 5
comments
print report bad tab
guest
You may want to rate the tab now too:
select rating
Wanna post a correction for this tab? Suggest correction