Oops, an error
Loading. Please wait.

My World Fell Down Bass Tab

4 views 3 this week
no commentswrite comment
1 2 3 4 5
3 more votes to show rating
add to favorites
launch autoscroll
font size
0
reset
guitar tuner
Autoscroll
slow
fast
+/-
esc
set tempo
stop
Help us to improve Ultimate-Guitar.com Take our survey!
×
Author
Difficulty
novice
Tabbed by: 6METAL6BASSIST6
E-mail: petergriffinav@gmail.com

Tuning: EADG

G|--6-----|
D|4-------|
A|------4-|
E|--------|

G|------------------------------------------6-----------------------------------------------6-----|
D|4---------------------------------------4-------4---------------------------------------4-------|
A|----------------------------------------------4-----------------------------------------------4-|
E|------------------------------------------------------------------------------------------------|

0:10

G|------------------------------------------6-----------------------------------------------6-----|
D|4---------------------------------------4-------4---------------------------------------4-------|
A|----------------------------------------------4-------------------------------------------------|
E|------------------------------------------------------------------------------------------------|

G|------------------------------------------6-----------------------------------------------------|
D|4---------------------------------------4-------4---------4-------------------------------------|
A|----------------------------------------------4-------------------4-----------------2-----------|
E|------------------------------------------------------------2---2-----2-5---2-5-----------2-----|

0:27

G|------------------------------------------------------------------------------------------4---6-|
D|------------------------7-----------7---7-6---4-------------------------7-----------7---7-------|
A|7-----7-----7-----7---------------7-------------7-----7-----7-----7---------------7-------------|
E|------------------------------------------------------------------------------------------------|

G|7-----7-----7-----7-----------------------------------------------6-----6-----------------6-----|
D|------------------------5-----5-----5-----5-----------------------------------------------------|
A|----------------------------------------------------------------4-----4-----------------4-----4-|
E|------------------------------------------------------------------------------------------------|

0:45

G|6-----------------6-----6-----------------6-----------------------------------------------6-----|
D|------------------------------------------------4---------------------------------------4-------|
A|----------------4-----4-----------------4-----------------------------------------------------4-|
E|------------------------------------------------------------------------------------------------|

G|------------------------------------------6-----------------------------------------------6-----|
D|4---------------------------------------4-------4---------------------------------------4-------|
A|----------------------------------------------4-----------------------------------------------4-|
E|------------------------------------------------------------------------------------------------|

1:02

G|------------------------------------------6-----------------------------------------------6-----|
D|4---------------------------------------4-------4---------------------------------------4-------|
A|----------------------------------------------4-----------------------------------------------4-|
E|------------------------------------------------------------------------------------------------|

G|------------------------------------------6-----------------------------------------------------|
D|4---------------------------------------4-------4---------4-------------------------------------|
A|------------------------------------------------------------------4-----------------2-----------|
E|------------------------------------------------------------2---2-------5-----5-----------2-----|

1:19

G|------------------------------------------------------------------------------------------4---6-|
D|------------------------7-----------7---7-6---4-------------------------7-----------7---7-------|
A|7-----7-----7-----7---------------7-------------7-----7-----7-----7---------------7-------------|
E|------------------------------------------------------------------------------------------------|

G|7-----7-----7-----7-----------------------------------------------6-----6-----------------6-----|
D|------------------------5-----5-----5-----5-----------------------------------------------------|
A|----------------------------------------------------------------4-----4-----------------4-----4-|
E|------------------------------------------------------------------------------------------------|

1:36

G|6-----------------6-----6-----------------6-----------------------------------------------6-----|
D|------------------------------------------------4---------------------------------------4-------|
A|----------------4-----4-----------------4-----------------------------------------------------4-|
E|------------------------------------------------------------------------------------------------|

G|------------------------------------------6-----------------------------------------------------|
D|4---------------------------------------4-------4-----------------------------------------------|
A|----------------------------------------------4-------------------------------------2-----------|
E|------------------------------------------------------------------------5-2---5-----------2-----|

1:54

G|------------------------------------------------------------------------------------------4---6-|
D|------------------------7-----------7---7-6---4-------------------------7-----------7---7-------|
A|7-----7-----7-----7---------------7-------------7-----7-----7-----7---------------7-------------|
E|------------------------------------------------------------------------------------------------|

G|7-----7-----7-----7-----------------------------------------------6-----------------------------|
D|------------------------5-----5-----5-----5---------------------4-------4-----------------------|
A|----------------------------------------------------------------------4-------------------------|
E|------------------------------------------------------------------------------------------------|

G|------------------------------------------------|
D|------------------------------------------------|
A|------------------------------------2-----------|
E|------------------------2---------2-------2-----|

2:16

G|------------------------------------------------------------------------------------------4---6-|
D|------------------------7-----------7---7-6---4-------------------------7-----------7---7-------|
A|7-----7-----7-----7---------------7-------------7-----7-----7-----7---------------7-------------|
E|------------------------------------------------------------------------------------------------|

G|7-----7-----7-----7-----------------------------------------------6-----------------------------|
D|------------------------5-----5-----5-----5---------------------4-------4-----------------------|
A|----------------------------------------------------------------------4-------------------------|
E|------------------------------------------------------------------------------------------------|

G|------------------------------------------6-----------------------------------------------6-----|
D|----------------------------------------4-------4---------------------------------------4-------|
A|----------------------------------------------4-----------------------------------------------4-|
E|------------------------------------------------------------------------------------------------|

G|------------------------------------------------|
D|--4---------------------------------------------|
A|------------------------------------------------|
E|------------------------------------2-----------|
Suggest correction
Give kudos to tab author, rate the tab!
1 2 3 4 5
comments
print report bad tab
guest
You may want to rate the tab now too:
select rating
Wanna post a correction for this tab? Suggest correction