Oops, an error
Loading. Please wait.

Harlot From Beyond bass

31 views 1 this week
no commentswrite comment
1 2 3 4 5
3 more votes to show rating
add to favorites
×
Save as Personal and add changes to this tab that will be seen only by you. Learn more ›
×
You can save this tab as Personal to edit and correct it or add notes. All changes will be seen only by you. Learn more »
launch autoscroll
font size
0
reset
guitar tuner
edit
Autoscroll
slow
fast
+/-
esc
set tempo
stop
[Verse]
("I Don't Know Why She Came Around...")
G|----------------------------------------|----------------------------------------|
D|-5-5-5----------------------------------|-5-5-5----------------------------------|
A|--------6/7-7-7-7--6/7-7-7-7--6/7-7-7-7-|--------6/7-7-7-7--6/7-7-7-7--6/7-7-7-7-|
E|----------------------------------------|----------------------------------------|

G|----------------------------------------|----------------------------------------|
D|-6-6-6----------------------------------|-5-5-5----------------------------------|
A|--------7/8-8-8-8--7/8-8-8-8--7/8-8-8-8-|--------6/7-7-7-7--6/7-7-7-7--6/7-7-7-7-|
E|----------------------------------------|----------------------------------------|

("When She Died I Didn't Mourn...")
G|----------------------------------------|----------------------------------------|
D|-5-5-5----------------------------------|-5-5-5----------------------------------|
A|--------6/7-7-7-7--6/7-7-7-7--6/7-7-7-7-|--------6/7-7-7-7--6/7-7-7-7--6/7-7-7-7-|
E|----------------------------------------|----------------------------------------|

G|----------------------------------------|----------------------------------------|
D|-6-6-6----------------------------------|-5-5-5----------------------------------|
A|--------7/8-8-8-8--7/8-8-8-8--7/8-8-8-8-|--------6/7-7-7-7--6/7-7-7-7--6/7-7-7-7-|
E|----------------------------------------|----------------------------------------|


[Chorus]
("She's The Harlot From Beyond, The Harlot From Beyond...")
G|-----------------------------2-3-4-|-----------------------------2-3-4-|
D|-0-0-0-0--2-2-2-2--3-3-3-3-3-------|-0-0-0-0--2-2-2-2--3-3-3-3-3-------|
A|-----------------------------------|-----------------------------------|
E|-----------------------------------|-----------------------------------|

G|-----------------------------2-3-4-|-----------------------------------|
D|-0-0-0-0--2-2-2-2--3-3-3-3-3-------|-0-0-0-0--2-2-2-2--3-3-3-3-3-3-3-3-|
A|-----------------------------------|-----------------------------------|
E|-----------------------------------|-----------------------------------|


[Verse]
("It's Not My Fault That She Od'ed...")
G|----------------------------------------|----------------------------------------|
D|-5-5-5----------------------------------|-5-5-5----------------------------------|
A|--------6/7-7-7-7--6/7-7-7-7--6/7-7-7-7-|--------6/7-7-7-7--6/7-7-7-7--6/7-7-7-7-|
E|----------------------------------------|----------------------------------------|

G|----------------------------------------|----------------------------------------|
D|-6-6-6----------------------------------|-5-5-5----------------------------------|
A|--------7/8-8-8-8--7/8-8-8-8--7/8-8-8-8-|--------6/7-7-7-7--6/7-7-7-7--6/7-7-7-7-|
E|----------------------------------------|----------------------------------------|

G|----------------------------------------|----------------------------------------|
D|-5-5-5----------------------------------|-5-5-5----------------------------------|
A|--------6/7-7-7-7--6/7-7-7-7--6/7-7-7-7-|--------6/7-7-7-7--6/7-7-7-7--6/7-7-7-7-|
E|----------------------------------------|----------------------------------------|

G|----------------------------------------|----------------------------------------|
D|-6-6-6----------------------------------|-5-5-5----------------------------------|
A|--------7/8-8-8-8--7/8-8-8-8--7/8-8-8-8-|--------6/7-7-7-7--6/7-7-7-7--6/7-7-7-7-|
E|----------------------------------------|----------------------------------------|


[Chorus]
("She's The Harlot From Beyond, The Harlot From Beyond...")
G|-----------------------------2-3-4-|-----------------------------2-3-4-|
D|-0-0-0-0--2-2-2-2--3-3-3-3-3-------|-0-0-0-0--2-2-2-2--3-3-3-3-3-------|
A|-----------------------------------|-----------------------------------|
E|-----------------------------------|-----------------------------------|

G|-----------------------------2-3-4-|-----------------------------------|
D|-0-0-0-0--2-2-2-2--3-3-3-3-3-------|-0-0-0-0--2-2-2-2--3-3-3-3-3-3-3-3-|
A|-----------------------------------|-----------------------------------|
E|-----------------------------------|-----------------------------------|


[Bridge]
("Every Night I Wake Up Screaming...")
G|----------------------------------|----------------------------------|
D|----------------------------------|----------------------------------|
A|------------------1-1-1-1-1-1-1-1-|------------------1-1-1-1-1-1-1-1-|
E|-1-1-1-1--3-3-3-3-----------------|-1-1-1-1--3-3-3-3-----------------|
                                                                        
G|----------------------------------|----------------------------------|-----------------|
D|----------------------------------|----------------------------------|-----------------|
A|------------------1-1-1-1-1-1-1-1-|------------------1-1-1-1-1-1-1-1-|-0-0-0-0-0-0-0-0-|
E|-1-1-1-1--3-3-3-3-----------------|-1-1-1-1--3-3-3-3-----------------|-----------------|

[Solo]
G|----------------------------------------|----------------------------------------|
D|-5-5-5----------------------------------|-5-5-5----------------------------------|
A|--------6/7-7-7-7--6/7-7-7-7--6/7-7-7-7-|--------6/7-7-7-7--6/7-7-7-7--6/7-7-7-7-|
E|----------------------------------------|----------------------------------------|

G|----------------------------------------|----------------------------------------|
D|-6-6-6----------------------------------|-5-5-5----------------------------------|
A|--------7/8-8-8-8--7/8-8-8-8--7/8-8-8-8-|--------6/7-7-7-7--6/7-7-7-7--6/7-7-7-7-|
E|----------------------------------------|----------------------------------------|

G|----------------------------------------|----------------------------------------|
D|-5-5-5----------------------------------|-5-5-5----------------------------------|
A|--------6/7-7-7-7--6/7-7-7-7--6/7-7-7-7-|--------6/7-7-7-7--6/7-7-7-7--6/7-7-7-7-|
E|----------------------------------------|----------------------------------------|

G|----------------------------------------|----------------------------------------|
D|-6-6-6----------------------------------|-5-5-5----------------------------------|
A|--------7/8-8-8-8--7/8-8-8-8--7/8-8-8-8-|--------6/7-7-7-7--6/7-7-7-7--6/7-7-7-7-|
E|----------------------------------------|----------------------------------------|


[Chorus]
("She's The Harlot From Beyond, The Harlot From Beyond...")
G|-----------------------------2-3-4-|-----------------------------2-3-4-|
D|-0-0-0-0--2-2-2-2--3-3-3-3-3-------|-0-0-0-0--2-2-2-2--3-3-3-3-3-------|
A|-----------------------------------|-----------------------------------|
E|-----------------------------------|-----------------------------------|

G|-----------------------------2-3-4-|-----------------------------------|
D|-0-0-0-0--2-2-2-2--3-3-3-3-3-------|-0-0-0-0--2-2-2-2--3-3-3-3-3-3-3-3-|
A|-----------------------------------|-----------------------------------|
E|-----------------------------------|-----------------------------------|


[Verse]
("Last Night It Happened All Again...")
G|----------------------------------------|----------------------------------------|
D|-5-5-5----------------------------------|-5-5-5----------------------------------|
A|--------6/7-7-7-7--6/7-7-7-7--6/7-7-7-7-|--------6/7-7-7-7--6/7-7-7-7--6/7-7-7-7-|
E|----------------------------------------|----------------------------------------|

G|----------------------------------------|----------------------------------------|
D|-6-6-6----------------------------------|-5-5-5----------------------------------|
A|--------7/8-8-8-8--7/8-8-8-8--7/8-8-8-8-|--------6/7-7-7-7--6/7-7-7-7--6/7-7-7-7-|
E|----------------------------------------|----------------------------------------|

("She's The Harlot From Beyond...")
G|----------------------------------------|----------------------------------------|
D|-5-5-5----------------------------------|-5-5-5----------------------------------|
A|--------6/7-7-7-7--6/7-7-7-7--6/7-7-7-7-|--------6/7-7-7-7--6/7-7-7-7--6/7-7-7-7-|
E|----------------------------------------|----------------------------------------|

G|----------------------------------------|----------------------------------------|
D|-6-6-6----------------------------------|-5-5-5----------------------------------|
A|--------7/8-8-8-8--7/8-8-8-8--7/8-8-8-8-|--------6/7-7-7-7--6/7-7-7-7--6/7-7-7-7-|
E|----------------------------------------|----------------------------------------|

***********************************

| /   Slide-up

***********************************

            
            
Suggest correction
Creating personal tab
Creating personal tab
You can edit any tab online and save it as your Personal.

You can edit, replace or remove any tab part or add personal notes – all changes will be seen only by you.

Personal tabs can be accessed anytime from any device, even offline.
Learn more »
Give kudos to tab author, rate the tab!
1 2 3 4 5
comments
print report bad tab
guest
You may want to rate the tab now too:
select rating
Wanna post a correction for this tab? Suggest correction