Oops, an error
Loading. Please wait.

The Eternal Now Tab

325 views 1 this week
no commentswrite comment
1 2 3 4 5
please rate
add to favorites
launch autoscroll
font size
0
reset
how to read this tab
guitar tuner
Tab Pro tools
  • play this tab
  • loop segment
  • change instrument
  • show fretboard
  • metronome
Autoscroll
slow
fast
+/-
esc
set tempo
stop
Contributor
http://www.theburningseason.com/

Drop C-

||--------------------------------------------------------------|
||--------------------------------------------------------------|
||-7/8/7-77-7/6/7-77-7-7--7/8/7-77-7/8/7-77-10-10---------------|
||-x-x-x-xx-x-x-x-xx-x-x--x-x-x-xx-x-x-x-xx-x-x-----------------|
||-5/6/5-55-5/8/5-55-5-5--5/6/5-55-5/6/5-55-8-8-----------------|
||--------------------------------------------------------------|

||--------------------------------------------------------------|
||--------------------------------------------------------------|
||--------------------------------------------------------------|
||-0--0--0--0---------------------------------------------------|
||-0--0--0--0---------------------------------------------------|
||-0--0--0--0---------------------------------------------------|

||--------------------------------------------------------------|
||--------------------------------------------------------------|
||--------------------------------------------------------------|
||--------------------------------------------------------------|
||-000-8-7-0-0-000-000-000-000----------------------------------|
||-000--0--0-0-000-000-000-000----------------------------------|
   ...  .  . . ... ... ... ...
||--------------------------------------------------------------|
||--------------------------------------------------------------|
||--------------------------------------------------------------|
||--------------------------------------------------------------|
||-00-8-7-00-00-00-0000-10878-7-5-------------------------------|
||-00--0--00-00-00-0000-----------------------------------------|
   ..  .  .. .. .. ....
||--------------------------------------------------------------|
||--------------------------------------------------------------|
||-9------10----------------------------------------------------|
||-x------x-----------------------------------------------------|
||-7------8-----------------------------------------------------|
||--------------------------------------------------------------|

||--------------------------------------------------------------|
||--------------------------------------------------------------|
||-------------------------------------7------------------------|
||-------------------------------------x----3~------------------|
||-0-00-21-0-100010001000--0-00-21-0-0-5------------------------|
||-0-00-21-0-100010001000--0-00-21-0-0----0---------------------|
   . .. .. . ............  . .. .. . .    .
||--------------------------------------------------------------|
||--------------------------------------------------------------|
||-77-7-7-6-66-------------77-7-7-6-66--------------------------|
||-xx-x-x-x-xx-------------xx-x-x-x-xx--------------------------|
||-55-5-5-4-44-44-55-44-22-55-5-5-4-44-4-5-4-2------------------|
||-------------44-55-44-22-------------4-5-4-2------------------|
               .. .. .. ..
||--------------------------------------------------------------|
||--------------------------------------------------------------|
||--------------------------------------------------------------|
||-0--------6---------------------------------------------------|
||-0--------6---------------------------------------------------|
||-0--------6---------------------------------------------------|

||--------------------------------------------------------------|
||--------------------------------------------------------------|
||-9/11-11111111/12-1212-12/14----7-7-7-------------------------|
||-x-x--x-x-x-x--x--x-x--x--x-----x-x-x-------------------------|
||-7/9--9-9-9-9/-10-1010-10/12----5-5-5-------------------------|
||--------------------------------------------------------------|

||--------------------------------------------------------------|
||--------------------------------------------------------------|
||--------------------------------------------------------------|
||--------------------------------------------------------------|
||-00000---0-0-0---00000----------------------------------------|
||-00000---0-0-0---00000----------------------------------------|
   .....   . . .   .....
comments
We did not receive enough feedback on this tab! Please rate:
print report bad tab
1 2 3 4 5
I want to post or [tab]
guest
You may want to rate the tab now too:
select rating
Please do not post tabs as comments. Select "correction" instead!