Oops, an error
Loading. Please wait.

Worlds On Fire bass

1,075 views 1 this week
no commentswrite comment
1 2 3 4 5
3 more votes to show rating
add to favorites
×
Save as Personal and add changes to this tab that will be seen only by you. Learn more ›
×
You can save this tab as Personal to edit and correct it or add notes. All changes will be seen only by you. Learn more »
launch autoscroll
font size
0
reset
guitar tuner
edit
Autoscroll
slow
fast
+/-
esc
set tempo
stop
Author
Difficulty
-------------------------------------------------------------------------------
                             Worlds on Fire - The Butterfly Effect
-------------------------------------------------------------------------------
Tabbed by: Valery Ortiz
E-mail: zombiesliketrains@ymail.com

Tuning: Standard


Alright, this song was a bitch. This tab isnt complete I know, I tabbed the intro 
wich is pretty much repeated through half the song, the verses and a bit more. Its
not perfect and it's missing a few details, so I'll leave it to you guys to figure 
it out. If you come up with something leave it at the comment section or email me and 
I'll give you credit for it. Its a fun song and really tricky to learn but you'll feel 
like a badass once you do.

Intro
 Ok the tricky part here is how uncofortable is to play this notes. Esmond either 
plays on a six sting bass or the neck of his bass is confortable enough to play this.
Either way is easier to play this on a six string bass, but sadly I dont own one.

G|----15-15----15-15-|-19-------19-------|
D|-17-------17-------|----20-20----20-20-| 2x  - - - - - - - -
A|-------------------|-------------------|
E|-------------------|-------------------|

G|----15-15----15-15-|-20-------20-------|
D|-17-------17-------|----20-20----20-20-| 2x     
A|-------------------|-------------------|
E|-------------------|-------------------|         This section is played twice
                                                               
G|----17-17----17-17-|-20-17-17-20-17-17-|
D|-17-------17-------|-------------------| 2x
A|-------------------|-------------------|
E|-------------------|-------------------|

G|----17-17----17-17-|-22-------22-------|
D|-19-------19-------|----22-22----22-22-| 2x - - - - - - - - - 
A|-------------------|-------------------|
E|-------------------|-------------------|

Verse

G|----15-15----15-15-|-19-------19-------|
D|-17-------17-------|----20-20----20-20-| 2x - - - - - - - - - 
A|-------------------|-------------------|
E|-------------------|-------------------|

G|----14-14----14-14-|-19-------19-------|
D|-16-------16-------|----19-19----19-19-| 2x
A|-------------------|-------------------|
E|-------------------|-------------------|

G|----14-14----14-14-|-17-------17-------|
D|-15-------15-------|----19-19----19-19-| 2x
A|-------------------|-------------------|
E|-------------------|-------------------|

G|----12-12----12-12-|-17-------17-------|
D|-14-------14-------|----17-17----17-17-| 2x Play  all this twice during the verse
A|-------------------|-------------------|
E|-------------------|-------------------|

G|----12-12----12-12-|-15-------15-------|
D|-13-------13-------|----17-17----17-17-| 2x
A|-------------------|-------------------|
E|-------------------|-------------------|

G|----10-10----10-10-|-15-------15-------|
D|-12-------12-------|----15-15----15-15-| 2x
A|-------------------|-------------------|
E|-------------------|-------------------|

G|----12-12----12-12-|-14-12-12-14-12-12-|
D|-12-------12-------|-------------------| 2x
A|-------------------|-------------------|
E|-------------------|-------------------|

G|----11-11----11-11-|-14-------14-------|
D|-12-------12-------|----16-16----16-16-| 2x - - - - - - - - - -
A|-------------------|-------------------|
E|-------------------|-------------------|

Chorus

G|----15-15----15-15-|-19-------19-------|
D|-17-------17-------|----20-20----20-20-| 2x - - - - - - - - - 
A|-------------------|-------------------|
E|-------------------|-------------------|

G|----14-14----14-14-|-19-------19-------|
D|-16-------16-------|----19-19----19-19-| 2x
A|-------------------|-------------------|
E|-------------------|-------------------|

G|----14-14----14-14-|-17-------17-------|
D|-15-------15-------|----19-19----19-19-| 2x
A|-------------------|-------------------|
E|-------------------|-------------------|

G|----12-12----12-12-|-17-------17-------|
D|-14-------14-------|----17-17----17-17-| 2x 
A|-------------------|-------------------|
E|-------------------|-------------------|

G|----12-12----12-12-|-15-------15-------|
D|-13-------13-------|----17-17----17-17-| 2x
A|-------------------|-------------------|
E|-------------------|-------------------|

G|----10-10----10-10-|-15-------15-------|
D|-12-------12-------|----15-15----15-15-| 2x
A|-------------------|-------------------|
E|-------------------|-------------------|

G|----12-12----12-12-|-14-12-12-14-12-12-|
D|-12-------12-------|-------------------| 2x
A|-------------------|-------------------|
E|-------------------|-------------------|

G|----11-11----11-11-|-14-------14-------|
D|-12-------12-------|----16-16----16-16-| 2x 
A|-------------------|-------------------|
E|-------------------|-------------------|
  
Same as the verse but we add this measure:

G|----15-15----15-15-|-19-------19-------|
D|-17-------17-------|----20-20----20-20-| 1x
A|-------------------|-------------------|
E|-------------------|-------------------|

G|----15-15----15-15-|-19~---------------|
D|-17-------17-------|-------------------| 1x - - - - - - - - - - 
A|-------------------|-------------------|
E|-------------------|-------------------|

Verse:
Note: Im in doubt in this next part. If you listen to the record it sounds different 
from the rest of the song. I thought maybe he is playing the same notes in a different 
order and maybe even omiting a few notes, but when you watch live records it seems like
he is doing the same thing as the other verse. So if you figure out what he is doing, 
let me know. For now I'll just leave it like its the same as the other verse.


G|----15-15----15-15-|-19-------19-------|
D|-17-------17-------|----20-20----20-20-| 2x - - - - - - - - - 
A|-------------------|-------------------|
E|-------------------|-------------------|

G|----14-14----14-14-|-19-------19-------|
D|-16-------16-------|----19-19----19-19-| 2x
A|-------------------|-------------------|
E|-------------------|-------------------|

G|----14-14----14-14-|-17-------17-------|
D|-15-------15-------|----19-19----19-19-| 2x
A|-------------------|-------------------|
E|-------------------|-------------------|

G|----12-12----12-12-|-17-------17-------|
D|-14-------14-------|----17-17----17-17-| 2x Play  all this once
A|-------------------|-------------------|
E|-------------------|-------------------|

G|----12-12----12-12-|-15-------15-------|
D|-13-------13-------|----17-17----17-17-| 2x
A|-------------------|-------------------|
E|-------------------|-------------------|

G|----10-10----10-10-|-15-------15-------|
D|-12-------12-------|----15-15----15-15-| 2x
A|-------------------|-------------------|
E|-------------------|-------------------|

G|----12-12----12-12-|-14-12-12-14-12-12-|
D|-12-------12-------|-------------------| 2x
A|-------------------|-------------------|
E|-------------------|-------------------|

G|----11-11----11-11-|-14-------14-------|
D|-12-------12-------|----16-16----16-16-| 2x - - - - - - - - - -
A|-------------------|-------------------|
E|-------------------|-------------------|

Chorus:
Note: I dunno what the hell is going on here. But if he is following the band and
not playing around he may be doing something like this:

Hold each note
G|-----------|----------|----------|---------|----------|----------|----------|------------|
D|-5----5----|--4----4--|--3----3--|-2----2--|--1----1--|--0---0---|--0----0--|--0\7---7\12|
A|-----------|----------|----------|---------|----------|----------|----------|------------|
E|-----------|----------|----------|---------|----------|----------|----------|------------|

Bridge
                                                                 8x 
G|-------------|---------------|-----7------7-|-5-5-8-5-7-8-||---5h7---||
D|-5-5-8-5-7-8-|-7-7-10-7-8-10-|-8-8---8-10---|-------------||-0-------|| --- Repeat this 3x
A|-------------|---------------|--------------|-------------||---------||
E|-------------|---------------|--------------|-------------||---------||
'
Ok my ears are failing me by now. After this I can hear some of the notes but I can't tell for sure
I'll work more on it once I get some free time and upload the rest. Do comment your suggestions.
Enjoy.


| /  slide up
| \  slide down
| h  hammer-on
| p  pull-off
| ~  vibrato
| +  harmonic
| x  Mute note
===============================================================================

            
            
Suggest correction
Creating personal tab
Creating personal tab
You can edit any tab online and save it as your Personal.

You can edit, replace or remove any tab part or add personal notes – all changes will be seen only by you.

Personal tabs can be accessed anytime from any device, even offline.
Learn more »
Give kudos to tab author, rate the tab!
1 2 3 4 5
comments
print report bad tab
guest
You may want to rate the tab now too:
select rating
Wanna post a correction for this tab? Suggest correction