Oops, an error
Loading. Please wait.

Cta - 102 bass

98 views 1 this week
1 commentread comment
1 2 3 4 5
x 5
add to favorites
×
Save as Personal and add changes to this tab that will be seen only by you. Learn more ›
×
You can save this tab as Personal to edit and correct it or add notes. All changes will be seen only by you. Learn more »
launch autoscroll
font size
0
reset
guitar tuner
edit
Autoscroll
slow
fast
+/-
esc
set tempo
stop
Author
Difficulty
Tabbed by: bassm99
E-mail: alanmatthews1966@yahoo.co.uk

Tuning: E, A, D, G

"C.T.A. - 102" from the album "Younger Than Yesterday" (1967)
Written by J.McGuinn/R.J.Hippard

Verse: 
 
G|--------------------------------------------------------------------------|
D|--------------------------------------------------------------------------|
A|--10-10-10-------8-8-8--------10-10-10------10-10-8-8-8-------------------|
E|-----------8-8-8-------8-8-8-----------8--8-------------8--8-8------------|

G|--------------------------------------------------------------------------|
D|--------------------------------------------------------------------------|
A|--------------------------------------------------------------------------|
E|--10--10-10--10-10--10-10--10---------------------------------------------|

G|--------------------------------------------------------------------------|
D|--------------------------------------------------------------------------|
A|--10-10-10-----10-8-8-8--------10-10-10-----10--8-8-----------------------|
E|-----------8-8----------8-8-8-----------8-8---------8-8-------------------|

G|--------------------------------------------------------------------------|
D|--------------------------------------------------------------------------|
A|--------------------------------------------------------------------------|
E|--10--10-10--10-10--10-10--10---------------------------------------------|

Bridge/Instrumental:

G|--------------------------------------------------------------------------|
D|--------------------------------------------------------------------------|
A|--10-10-10----------------------------------------------------------------|
E|-----------8-8-8-(x19)--10--10-10--10--10-10-(x1)-------------------------|

Verse:

G|--------------------------------------------------------------------------|
D|--------------------------------------------------------------------------|
A|--10-10-10-----10-10--8-8-8--------10-10-10---10-10--8-8-8----------------|
E|-----------8-8--------------8-8-8-----------8--------------8-8-8----------|

G|--------------------------------------------------------------------------|
D|--------------------------------------------------------------------------|
A|--------------------------------------------------------------------------|
E|--10--10-10-10--10--10-10-10----------------------------------------------|

Bass Stops: (1:32)

Ending: (1:32 - 2:26) Various Sound Effects - No Bass, but if so it's buried
        in the mix.

            
            
Suggest correction
Creating personal tab
Creating personal tab
You can edit any tab online and save it as your Personal.

You can edit, replace or remove any tab part or add personal notes – all changes will be seen only by you.

Personal tabs can be accessed anytime from any device, even offline.
Learn more »
comments
print report bad tab
1 comment total.
0 reply
Bruno Frenchy 4,686 Jul 13, 2015 03:43 AM

Sounds perfect from what I played and listened (from the song on I-Tunes from the Byrds' album Youger than yesterday)... Easy enough to follow..
Great job... Thanks

guest
You may want to rate the tab now too:
select rating
Wanna post a correction for this tab? Suggest correction