Oops, an error
Loading. Please wait.

I Knew Id Want You Tab

313 views 1 this week
no commentswrite comment
1 2 3 4 5
please rate
add to favorites
launch autoscroll
font size
0
reset
how to read this tab
guitar tuner
Tab Pro tools
  • play this tab
  • loop segment
  • change instrument
  • show fretboard
  • metronome
Autoscroll
slow
fast
+/-
esc
set tempo
stop
Contributor
Difficulty
intermediate
Intro:
  Em    D       Em      D      Em
E--------------------------------|
B--------------------------------|
G--------------------------------|
D----0-------------0-------------|
A-2-----0h2p0---2-------0h2p0----|
E---------------------3----------|

     Em       D            C                 G          G
I'd  like to  love  you,      with all of my heart.
E---------------------------------------------------------|
B---------------------------------------------------------|
G-------------------------------------------------0-------|
D---------------------------------------------------0-----|
A-----------------------------------------------------2---|
E-------------------------------------------------------3-|

G                F              Em                 A      C
You've had me on your  trip,        right from the start.
C            Em                C                    Em
And when you looked at  me,       with love in your eyes.
 Em F                     D           D7      D7       Em
 I  knew,        I'd want you,     oh yeah.
E-------------------------5vvvvv-------------------------|
B---6------5h6p5-6-5-6-----------------------------------|
G--------------------------------------------------------|
D--------------------------------------------------------|
A--------------------------------------------------------|
E--------------------------------------------------------|

Em            D             C                 G        G
I'd  like to  hold  you,       if you want me to.
E--------------------------------------------------------|
B--------------------------------------------------------|
G------------------------------------------------0-------|
D--------------------------------------------------0-----|
A----------------------------------------------------2---|
E------------------------------------------------------3-|

G                     F            Em                      A      C
I've found some-thing new  girl,       just by look-ing at you.
C                 Em        C                   Em
And it's in your  smile,       and it's in the  way.
 Em F                      D             D7           D7
 I  knew,       I'd  want  you,       oh yeah.
E--------------------------5vvvvv-----------------------|
B---6-----5h6p5-6-5-6-----------------------------------|
G-------------------------------------------------------|
D-------------------------------------------------------|
A-------------------------------------------------------|
E-------------------------------------------------------|

     C                G              F                   Em
     I meet  so ma-ny peo-ple,         I feel  I  don't  know.
E-0------------------------------------------------------------|
B-1-------------------------------5>(6)==========>5------5-----|vvvv
G-0------------------------------------------------------------|
D-2------------------------------------------------------------|
A-3------------------------------------------------------------|
E-0------------------------------------------------------------|

    C             G                    F
    But I felt so close to you,        when you said
E-0----------------------------------1--------------|
B-1----------------------------------1--------------|
G-0----------------------------------2--------------|
D-2----------------------------------3--------------|
A-3----------------------------------3--------------|
E-0----------------------------------1--------------|

D7        D7sus4   E7sus4        Em
Hel-lo    oh       oh.
E------------------------5-5\7-5-0-|
B--------------------------------0-|
G--------------------------------0-|
D--------------------------------2-|
A--------------------------------2-|
E--------------------------------0-|

Em           D                C                      G          G
I'd  like to love  you,          and to-geth-er we'd find.
E-----------------------------------------------------------------|
B-----------------------------------------------------------------|
G---------------------------------------------------------0-------|
D-----------------------------------------------------------0-----|
A-------------------------------------------------------------2---|
E---------------------------------------------------------------3-|

 G                     F              Em
 The place we've been  look-ing  for.
E------------------------5-5----------0-|
B----------------------6-----5h6--5h6---|
G---------------------------------------|
D---------------------------------------|
A---------------------------------------|
E---------------------------------------|

Em                         A      C
Where we'll have  peace of mind.
C                   Em         C                      Em
And there we'll be  hap-py,       and there I'll know why.
Em F                D          D7
I  knew,   I'd want you.    oh yeah.
 D7 F        E
 Oh yeah.
E--------------9-7--------------|
B------------------9-7---9------|vvvvv
G----------------------9--------|
D-------------------------------|
A-------------------------------|
E-------------------------------|

Chord diagrams:
Em     C      G      F      A      D      D7
022000 032010 x55433 x33211 003330 x00232 x00212
D7sus4 E7sus4 E
x00213 x00435 022100

h = hammer on, p = pull off, >( ) = bend to note in ( )
=====> = hold bend and release, vvv = vibrato.

Tabbed from: The Bryds. Mr. Tambourine Man CD
comments
We did not receive enough feedback on this tab! Please rate:
print report bad tab
1 2 3 4 5
I want to post or [tab]
guest
You may want to rate the tab now too:
select rating
Please do not post tabs as comments. Select "correction" instead!