Oops, an error
Loading. Please wait.

Its All Over Now Baby Blue Chords

version 2
version 2

Whole song

1,965 views 9 this week
no commentswrite comment
1 2 3 4 5
excellent!
x 2
add to favorites
launch autoscroll
font size
0
reset
transpose
0
reset
simplify chords
- display chords -
guitar tuner
Tab Pro tools
  • play this tab
  • loop segment
  • change instrument
  • show fretboard
  • metronome
Autoscroll
slow
fast
+/-
esc
set tempo
stop
Contributor
Difficulty
intermediate
Intro:
E-----0-----|
B-0-2---2-0-| 4x
G-----------|
D-----------|
A-----------|
E-----------|

B
You bet-ter go now,  take what you  want,
B   A          E    E4  E
you think will last.
B
Be-fore you miss some-thing,  you wish to keep,
B       A       E    E4  E
bet-ter grab it fast.
F#m                     A              E   E4  E  E4
Yon-der  stands your or-phan  with his gun.
F#m                  A        E   E4  E  E4
Cry-ing  like a  fire  in the sun.
C#m                                  C#m/E F#m     F#4  F#m  F#4
Look out for who, the saints are  com-in'  through.
F#4 F#m             A          E    E4  E  E4
And it's all  ov-er now, Baby  Blue.
B                                         A        E     E4  E
The high-wire  is for gam-blers,  bet-ter use your sense.
B                                       A       E     E4  E
Take what you have  ga-thered  from  co-in - ci-dence.
E   F#m                     A          E       E4  E  E4
The emp-ty  handed  paint-er  from the streets.
E4 F#m                       A          E      E4  E  E4
Is draw-ing  cra-zy pat-terns  on your  sheets.
E4   C#m                      C#m/E  F#m  F#4  F#m  F#4
The  sky  too, is fold-ing  un-der   you.
F#4 F#m             A            E    E4  E  E4
And it's all  ov-er now,  Ba-by  Blue.

Lead solo:

  E               E4 E    F#m
E-4-4-4-4--4-4--4-5--4-4--2-2-----2h4-2-|
B-------------------------------5-------|
G---------------------------------------|
D---------------------------------------|
A---------------------------------------|
E---------------------------------------|

   F#m           A         E       E4    E  E4     E
E----2-4--2--4-2-----------0-------------------------|
B--5-------------5--2--2p0-0--2-2-2-5--2-5--2--2h5-5-|
G----------------------------------------------------|
D----------------------------------------------------|
A----------------------------------------------------|
E----------------------------------------------------|

B                                       A      E    E4  E
All your sea-sick  sail-ors,  they are  go-in' home.
E    B                                   A      E    E4  E
Your emp-ty  handed  ar-mies,  they are  go-in' home.
E    F#m                    A          E    E4  E  E4
Your lov-er  who just walked  out your door.
E4  F#m                       A          E     E4  E  E4
Has ta-ken  all his  blan-kets  from the floor.
E4  C#m                         C#m/E  F#m  F#4  F#m  F#4
The car-pet  too,  is mov-ing un-der   you.
F#4 F#m             A           E    E4  E  E4
And it's all  ov-er now,  Ba-by Blue.
F#m             A           E
It's all  ov-er now,  Ba-by Blue.
E------------------------------------0-----|
B--------------------------------0-2---2-0-| 4x
G------------------------------------------|
D------------------------------------------|
A------------------------------------------|
E------------------------------------------|

F#m             A           E
It's all  ov-er now,  Ba-by Blue.
E-----------------------------------0-----| Repeat and fade.
B-------------------------------0-2---2-0-|
G-----------------------------------------|
D-----------------------------------------|
A-----------------------------------------|
E-----------------------------------------|

Chord diagrams:
B      A      E      Esus4(E4) F#m    F#sus4(F#4)
xx4442 xx3330 022100 022200    244222 224422
C#m    C#m/E
xx2124 xx2120
Alternative C#m and C#m/E     The alternative chords are a
            xx6654  xx6650    little easier to finger.
Tabbed from: Turn! Turn! Turn! CD, Bonus track. #15.
comments
We did not receive enough feedback on this tab! Please rate:
print report bad tab
1 2 3 4 5
I want to post or [tab]
guest
You may want to rate the tab now too:
select rating
Please do not post tabs as comments. Select "correction" instead!