Oops, an error
Loading. Please wait.

Mr Tambourine Man Tab

version 1
version 1

Whole song

Interactive

123,902 views 129 this week
3 commentsread comments
1 2 3 4 5
x 13
add to favorites
launch autoscroll
font size
0
reset
how to read this tab
guitar tuner
×
Best way to learn
"Mr Tambourine Man"
Autoscroll
slow
fast
+/-
esc
set tempo
stop
[Intro]

  12 string gtr
e|--------------------------------------------------|
B|-------------------3--------------------------3---|
G|---2---4-2-0------------------2---4-2-0-----------|
D|-0---0-------4-2-2---2-0-2--0---0-------4-2-2---2-|
A|--------------------------------------------------|
E|--------------------------------------------------|


[Chorus]

   G              A               D               G
e|----------------0-----------0-3-2-----------2----------------|
B|------------------2---3-----------3---3-------3------0-------|
G|------------0-------2---2-----------2---2-------0------0-----|
D|-----0----0---0-----------2-----0---------0-------0--------0-|
A|---2---2--------0-----------------------------------2----2---|
E|-3----------------------------------------------0------------|
hey mister tambourine man play a song for me

   D              G              A
e|-------2------3----------------0--------0----|
B|-----3----3---------------0------2--3------2-|
G|---2--------------------0--------------------|
D|-0----------0-------0--------0---------------|
A|------------------2---2--------0-------------|
E|----------------3----------------------------|
im not sleepy and there aint no place im going to

   G              A               D               G
e|----------------0-----------0-----------------3--------------|
B|------------------2---3-------------3-----3-----------0------|
G|------------0-------2-------------2-----2-----------0--------|
D|-----0----0---0-----------------0-----0-----------0--------0-|
A|---2---2--------0----------------------------------------2---|
E|-3----------------------------------------------3------------|
hey mister tambourine man play a song for me

   D              G              A              D
e|-------2------3----------------0--------0-----2-----0------2-----3-----|
B|-----3----3----------0-----0------2---3----3----3----------------------|
G|---2--------2------0-----0---0------2-------------2----2-----2-----2---|
D|-0--------------------------------------------0----------0-----0-----0-|
A|-------------------------------0---------------------------------------|
E|----------------3------3-----------------------------------------------|
in the jingle jangle morning ill come following you


[Verse]

   G             A             D             G
e|-------------3-0-----------3-2-----2-----------------------|
B|-----------0-----2---3--2--0---3---------------0-----0---0-|
G|------0------------2-------------2----2----------0---------|
D|----0---0--------------------0-----------0---0-----0-------|
A|---------------0---------------------------------------2---|
E|-3-----------------------------------------3---------------|
take me for a trip upon your magic swirling ship

   D             G           D              G
e|-2-----2-------------------------2------3------------3-|
B|---3---------0-----------0-3---3---------------0---0---|
G|-----2----2------------0-----2------2------------------|
D|-0-----------------0-------0----------0------0---------|
A|-----------------2---2---------------------------2-----|
E|---------------3---------------------------3-----------|
all my senses have been stripped and my hands cant feel to grip

   D             G             D              G            A
e|-2-----2----3---3------3-----------2-----------------3------------0---0---0-------0--3-|
B|---3------3-------0--------0-----3----3---0-------0----0---2---3------------2-2-3----0-|
G|-----2--------------0----------2--------2-------0------------2---2--2----------------0-|
D|-0-----------------------0---0----------------0----------------------------------------|
A|---------------------------------------------------------0--------------0--------------|
E|--------------3-----------------------------3------------------------------------------|
and my toes too numb to step wait only for my boot heels to be wandering

   G             A             D             G
e|-------------3-0-----------3-2-----2-----------------------|
B|-----------0-----2---3--2--0---3---------------0-----0---0-|
G|------0------------2-------------2----2----------0---------|
D|----0---0--------------------0-----------0---0-----0-------|
A|---------------0---------------------------------------2---|
E|-3-----------------------------------------3---------------|
im ready to go anywhere im ready for to fade

   D             G           D              G
e|-2-----2-------------------------2------3------------3-|
B|---3---------0-----------0-3---3---------------0---0---|
G|-----2----2------------0-----2------2------------------|
D|-0-----------------0-------0----------0------0---------|
A|-----------------2---2---------------------------2-----|
E|---------------3---------------------------3-----------|
in to my own parade cast your dancing spell my way

  A
   D             G           D              G
e|-2-----2-------------------------2------3------------3-|
B|---3---------0-----------0-3---3---------------0---0---|
G|-----2----2------------0-----2------2------------------|
D|-0-----------------0-------0----------0------0---------|
A|-----------------2---2---------------------------2-----|
E|---------------3---------------------------3-----------|

   A
e|-----------0---0---0-------0-3-|
B|---2---3-------------2---3-----|
G|-----2---2-------------2-------|
D|-------------2-----------------|
A|-0---------------0-------------|
E|-------------------------------|
i promise to go under it
Suggest correction
comments
print report bad tab
3 comments total.
+2 reply
DevilsDance76 10 Dec 09, 2012 04:03 PM

I don't that 3 on the B string belongs in there.
Playing the intro without it sounds best to my ears

+1 reply
wbalston 194 Oct 15, 2013 07:33 PM

i believe intro should go like this
--------------------------------------------------|
--------------------------------------------------|
---2---4-2-0------------------2---4-2-0-----------|
-0---0-------4-2-0-4-2-0-2--0---0-------4-2-0-4-2-|
--------------------------------------------------|
--------------------------------------------------|

0 reply
ThomasWright96 10 Aug 15, 2014 03:29 PM

Yeah it sounds right without the 3 on the B string

guest
You may want to rate the tab now too:
select rating
Wanna post a correction for this tab? Suggest correction