Oops, an error
Loading. Please wait.

The Bells Of Rhymney bass

272 views 1 this week
no commentswrite comment
1 2 3 4 5
2 more votes to show rating
add to favorites
×
Save as Personal and add changes to this tab that will be seen only by you. Learn more ›
×
You can save this tab as Personal to edit and correct it or add notes. All changes will be seen only by you. Learn more »
launch autoscroll
font size
0
reset
guitar tuner
edit
Autoscroll
slow
fast
+/-
esc
set tempo
stop
Author
The Bells Of Rhymney
The Byrds
Written by Idris Davies and Pete Seeger; released on the album "Mr. 
Tambourine Man".

Intro:
G|------- ------- ------- -------|------- ------- ------- -------|
D|-------------------------------|-------------------------------|
A|-------------------------------|-------------------------------|
E|-------------------------------|-------------------------------|



G|------- ------- ------- -------|------- ------- ------- -------|
D|-------------------------------|-------------------------------|
A|5-----------5------------------|5-----------5------------------|
E|-------------------------------|-------------------------------|
                                                         "Oh,

Verse:
G|------- ------- ------- -------|------- ------- ------- -------|
D|-------------------------------|-------------------------------|
A|5-----------5------------------|5-----------5------------------|
E|-------------------------------|-------------------------------|
  what will   you give    me?"                            say the


G|------- ------- ------- -------|------- ------- ------- -------|
D|5---------------4--------------|-------------------------------|
A|-------------------------------|7-----------7---7---7---7---7--|
E|-------------------------------|-------------------------------|
      sad         bells       of          Rhym-


G|------- ------- ------- -------|------- ------- ------- -------|
D|-------------------------------|-------------------------------|
A|5-----------5------------------|5-----------5---------------4--|
E|-------------------------------|-------------------------------|
  ney.                                                   "Is  there


G|------- ------- ------- -------|------- ------- ------- -------|
D|-------------------------------|----------------------------4--|
A|5-----------5------------------|5-----------5------------------|
E|-------------------------------|-------------------------------|
  hope    for the     fu  -   ture?"                      say the


G|------- ------- ------- -------|------- ------- ------- -------|
D|5---------------4-----------4--|------------7------------------|
A|-------------------------------|-------------------------------|
E|-------------------------------|5------------------------------|
      brown       bells       of          Mer  -  thyr.


G|------- ------- ------- -------|------- ------- ------- -------|
D|------------5-----------5------|-------------------------------|
A|-------------------------------|5-----------5------------------|
E|5------------------------------|-------------------------------|
                         "Who     made    the mine    -   owner?"


G|------- ------- ------- -------|------- ------- ------- -------|
D|----------------------------4--|5---------------4-----------4--|
A|5-----------5------------------|-------------------------------|
E|-------------------------------|-------------------------------|
                          say the     black       bells       of


G|------- ------- ------- -------|------- ------- ------- -------|
D|------------7------------------|------------5-----------5------|
A|-------------------------------|-------------------------------|
E|5------------------------------|5------------------------------|
      Rhond - da.                                        "And


G|------- ------- ------- -------|------- ------- ------- -------|
D|-------------------------------|----------------------------4--|
A|5-----------5------------------|5-----------5------------------|
E|-------------------------------|-------------------------------|
  who killed  the mi  -   ner?"                           say the


G|------- ------- ------- -------|------- ------- ------- -------|
D|5---------------4--------------|-------------------------------|
A|-------------------------------|7-----------7---7---7---7---7--|
E|-------------------------------|-------------------------------|
      grim        bells       of      Blai-


G|------- ------- ------- -------|------- ------- ------- -------|
D|-------------------------------|-------------------------------|
A|5-----------5------------------|5-----------5---------------4--|
E|-------------------------------|-------------------------------|
  na.


G|------- ------- ------- -------|------- ------- ------- -------|
D|-------------------------------|-------------------------------|
A|5-----------5------------------|5-----------5---------------4--|
E|-------------------------------|-------------------------------|
                                                         "Throw the

Verse:
G|------- ------- ------- -------|------- ------- ------- -------|
D|-------------------------------|----------------------------4--|
A|5-----------5------------------|5-----------5------------------|
E|-------------------------------|-------------------------------|
  vandals     in      court!"                             say the


G|------- ------- ------- -------|------- ------- ------- -------|
D|5---------------4--------------|-------------------------------|
A|-------------------------------|7-----------7---7---7---7---7--|
E|-------------------------------|-------------------------------|
      bells       of              New-


G|------- ------- ------- -------|------- ------- ------- -------|
D|-------------------------------|-------------------------------|
A|5-----------5------------------|5-----------5---------------4--|
E|-------------------------------|-------------------------------|
  port.                                          "All  will  be


G|------- ------- ------- -------|------- ------- ------- -------|
D|-------------------------------|------------4-----------4------|
A|5-----------5------------------|5------------------------------|
E|-------------------------------|-------------------------------|
  well if,   if,      if,     if,     if..."              say the


G|------- ------- ------- -------|------- ------- ------- -------|
D|5-----------5---4-----------4--|------------7------------------|
A|-------------------------------|-------------------------------|
E|-------------------------------|5------------------------------|
      green bells         of      Car  -  diff.


G|------- ------- ------- -------|------- ------- ------- -------|
D|------------5---------------7--|-------------------------------|
A|-------------------------------|5-----------5------------------|
E|5------------------------------|-------------------------------|
                         "Why so      wor  -  ried,       sisters,


G|------- ------- ------- -------|------- ------- ------- -------|
D|----------------------------4--|5-------5---5-----------5------|
A|5-----------5------------------|-------------------------------|
E|-------------------------------|-------------------------------|
      why?"               say the     sil  -  ver bells       of


G|------- ------- ------- -------|------- ------- ------- -------|
D|-------------------------------|-------------------------------|
A|7-------7---7-------7---7---7--|5-----------5------------------|
E|-------------------------------|-------------------------------|
      Wye.                   "And what will   you give    me?"


G|------- ------- ------- -------|------- ------- ------- -------|
D|----------------------------4--|5---------------4--------------|
A|5-----------5------------------|-------------------------------|
E|-------------------------------|-------------------------------|
                          say the     sad         bells       of


G|------- ------- ------- -------|------- ------- ------- -------|
D|-------------------------------|-------------------------------|
A|7-----------7---7---7---7---7--|5-----------5------------------|
E|-------------------------------|-------------------------------|
          Rhym        -           ney.


G|------- ------- ------- -------|------- ------- ------- -------|
D|-------------------------------|-------------------------------|
A|5-----------5---------------4--|5-----------5------------------|
E|-------------------------------|-------------------------------|



G|------- ------- ------- -------|
D|-------------------------------|
A|5-----------5---------------4--|
E|-------------------------------|


Bridge (solo):
G|------- ------- ------- -------|------- ------- ------- -------|
D|-------------------------------|-------------------------------|
A|5-----------5------------------|5-----------5---------------4--|
E|-------------------------------|-------------------------------|



G|------- ------- ------- -------|------- ------- ------- -------|
D|-------------------------------|-------------------------------|
A|5-----------5------------------|5-----------5-----------5------|
E|-------------------------------|-------------------------------|



G|------- ------- ------- -------|------- ------- ------- -------|
D|5-----------5-----------5------|----------------------------4--|
A|-------------------------------|7-----------7-----------7------|
E|-------------------------------|-------------------------------|



G|------- ------- ------- -------|------- ------- ------- -------|
D|5-----------5-----------5------|------------------------4------|
A|-------------------------------|7-----------7------------------|
E|-------------------------------|-------------------------------|



G|------- ------- ------- -------|------- ------- ------- -------|
D|-------------------------------|-------------------------------|
A|5-----------5------------------|5-----------5---------------4--|
E|-------------------------------|-------------------------------|



G|------- ------- ------- -------|------- ------- ------- -------|
D|-------------------------------|-------------------------------|
A|5-----------5------------------|5-----------5---------------4--|
E|-------------------------------|-------------------------------|
                                                         "Oh,

Verse:
G|------- ------- ------- -------|------- ------- ------- -------|
D|-------------------------------|----------------------------4--|
A|5-----------5------------------|5-----------5------------------|
E|-------------------------------|-------------------------------|
  what will   you give    me?"                            say the


G|------- ------- ------- -------|------- ------- ------- -------|
D|5---------------4--------------|-------------------------------|
A|-------------------------------|7-----------7---7---7---7---7--|
E|-------------------------------|-------------------------------|
      sad         bells       of          Rhym-


G|------- ------- ------- -------|------- ------- ------- -------|
D|-------------------------------|-------------------------------|
A|5-----------5------------------|5-----------5---------------4--|
E|-------------------------------|-------------------------------|
  ney.                                                   "Is  there


G|------- ------- ------- -------|------- ------- ------- -------|
D|-------------------------------|----------------------------4--|
A|5-----------5------------------|5-----------5------------------|
E|-------------------------------|-------------------------------|
  hope    for the     fu  -   ture?"                      say the


G|------- ------- ------- -------|------- ------- ------- -------|
D|5---------------4-----------4--|------------7------------------|
A|-------------------------------|-------------------------------|
E|-------------------------------|5------------------------------|
      brown       bells       of          Mer  -  thyr.


G|------- ------- ------- -------|------- ------- ------- -------|
D|------------5---------------7--|-------------------------------|
A|-------------------------------|5-----------5------------------|
E|5------------------------------|-------------------------------|
                         "Who     made    the mine    -   owner?"


G|------- ------- ------- -------|------- ------- ------- -------|
D|----------------------------4--|5---------------4-----------4--|
A|5-----------5------------------|-------------------------------|
E|-------------------------------|-------------------------------|
                          say the     black       bells       of


G|------- ------- ------- -------|------- ------- ------- -------|
D|------------7------------------|------------5---------------7--|
A|-------------------------------|-------------------------------|
E|5------------------------------|5------------------------------|
      Rhond - da.                                        "And


G|------- ------- ------- -------|------- ------- ------- -------|
D|-------------------------------|----------------------------4--|
A|5-----------5---------------4--|5-----------5------------------|
E|-------------------------------|-------------------------------|
  who killed  the mi  -   ner?"                           say the


G|------- ------- ------- -------|------- ------- ------- -------|
D|5---------------4--------------|-------------------------------|
A|-------------------------------|7-----------7---7---7---7---7--|
E|-------------------------------|-------------------------------|
      grim        bells       of      Blai-


G|------- ------- ------- -------|------- ------- ------- -------|
D|-------------------------------|-------------------------------|
A|5-----------5------------------|5-----------5------------------|
E|-------------------------------|-------------------------------|
  na.


G|------- ------- ------- -------|------- ------- ------- -------|
D|-------------------------------|----------------------------4--|
A|5-----------5------------------|5-----------5------------------|
E|-------------------------------|-------------------------------|


Outro:
G|------- ------- ------- -------|------- ------- ------- -------|
D|5-----------5------------------|4-----------4-----------4------|
A|-------------------------------|-------------------------------|
E|-------------------------------|-------------------------------|
  aaaaaaaaaaaaaaaaaaaaaaaaaaaaaaaaaaaaaaaaaaaaaaaaaaaaaaaaaaaaaaa


G|------- ------- ------- -------|------- ------- ------- -------|
D|-------------------------------|-------------------------------|
A|7-----------7-----------7------|7-----------7---7---7---7---7--|
E|-------------------------------|-------------------------------|
  aaaaaaaaaaaaaaaaaaaaaaaaaaaaaaaaaaaaaaaaaaaaaaaaa...


G|------- ------- ------- -------|------- ------- ------- -------|
D|-------------------------------|-------------------------------|
A|5-----------5------------------|5-----------5---------------4--|
E|-------------------------------|-------------------------------|
  aaaaaaaaaaaaaaaaaaaaaaaaaaaaaaaaaaaaaaaaaaaaaaaaaaaaaaaaaaaaaaa


G|------- ------- ------- -------|------- ------- ------- -------|
D|-------------------------------|----------------------------4--|
A|5-----------5------------------|5-----------5------------------|
E|-------------------------------|-------------------------------|



G|------- ------- ------- -------|------- ------- ------- -------|
D|5-----------5------------------|4-----------4---------------4--|
A|-------------------------------|-------------------------------|
E|-------------------------------|-------------------------------|
  aaaaaaaaaaaaaaaaaaaaaaaaaaaaaaaaaaaaaaaaaaaaaaaaaaaaaaaaaaaaaaa


G|------- ------- ------- -------|------- ------- ------- -------|
D|-------------------------------|-------------------------------|
A|------------5------------------|-------------------------------|
E|5------------------------------|5-----------5---5---5---5---5--|
  aaaaaaaaaaaaaaaaaaaaaaaaaaaaaaaaaaaaaaaaaaaaaaaaa...


G|------- ------- ------- -------|------- ------- ------- -------|
D|-------------------------------|-------------------------------|
A|5-----------5------------------|5-----------5---------------4--|
E|-------------------------------|-------------------------------|
  aaaaaaaaaaaaaaaaaaaaaaaaaaaaaaaaaaaaaaaaaaaaaaaaaaaaaaaaaaaaaaa


G|------- ------- ------- -------|------- ------- ------- -------|
D|-------------------------------|-------------------------------|
A|5-----------5------------------|5-----------5------------------|
E|-------------------------------|-------------------------------|
  aaaaaaaaaaaaaaaaaaaaaaaaaaaaaaaaaaaaaaaaaaaaaaaaaaaaaaaa...


G|------- ------- ------- -------|------- ------- ------- -------|
D|-------------------------------|-------------------------------|
A|5------------------------------|-------------------------------|
E|-------------------------------|-------------------------------|

Please e-mail me for any corrections, or write a comment.

            
            
Suggest correction
Creating personal tab
Creating personal tab
You can edit any tab online and save it as your Personal.

You can edit, replace or remove any tab part or add personal notes – all changes will be seen only by you.

Personal tabs can be accessed anytime from any device, even offline.
Learn more »
Give kudos to tab author, rate the tab!
1 2 3 4 5
comments
print report bad tab
guest
You may want to rate the tab now too:
select rating
Wanna post a correction for this tab? Suggest correction