Oops, an error
Loading. Please wait.

The Bells Of Rhymney Tab

version 2
version 2

Whole song

463 views 3 this week
no commentswrite comment
1 2 3 4 5
please rate
add to favorites
launch autoscroll
font size
0
reset
how to read this tab
guitar tuner
Tab Pro tools
  • play this tab
  • loop segment
  • change instrument
  • show fretboard
  • metronome
×
Best way to learn
"The Bells Of Rhymney"
Autoscroll
slow
fast
+/-
esc
set tempo
stop
Contributor
Difficulty
intermediate
Intro:
E-------0--2-----3p2-2-0-|
B---3----------3---------|
G-----2------------------|  2x
D-0----------------------|
A------------------------|
E------------------------|

D2    D                    D4 D4 D4  D D2
O-oh, what will you give me?
D2      G   Bm7      E    D      D2 D   D D4  D D2
Say the sad bells of Rhym-ney.
E--------------------------------0--2-----3p2-2-0-|
B---------------------------3-----------3---------|
G-----------------------------2-------------------|
D-------------------------0-----------------------|
A-------------------------------------------------|
E-------------------------------------------------|

D2       D                      D
Is there hope for the fu-ture?
D       C     Em       A A A2 A  A4 A4 A A A2 A A4
Say the brown bells of Mer  -  thyr.
E--------------------------------------------------|
B--------------------------0--2--3---------0--2--3-|
G------------------------2---------------2---------|
D----------------------2-------------0-2-----------|
A--------------------------------------------------|
E--------------------------------------------------|

A4   D                     D4 D4 D4 D D2
Who  made  the mine  own-er?
D2      C     Em       A A A2 A A4 A4 A A A2 A  A4
Say the black bells of Rhon - da.
E-------------------------------------------------|
B--------------------------0--2--3--------0--2--3-|
G------------------------2--------------2---------|
D----------------------2------------0-2-----------|
A-------------------------------------------------|
E-------------------------------------------------|

A4  D                    D4 D4 D4 D D2
And who killed the min-er?
D2      G    Bm7       E      D    D2  D   D D4  D D2
Say the grim bells of  Blai - na.
E-----------------------------------0--2-----3p2-2-0-|
B-------------------------------3----------3---------| 2x
G---------------------------------2------------------|
D-----------------------------0----------------------|
A----------------------------------------------------|
E----------------------------------------------------|

D2        D                 D4 D4 D4 D D2
Throw the van-dals in court.
D2  G          Bm7 E     D     D2 D   D D4  D D2
Say the bells  of  New - port.
E------------------------------0--2-----3p2-2-0-|
B--------------------------3----------3---------|
G----------------------------2------------------|
D------------------------0----------------------|
A-----------------------------------------------|
E-----------------------------------------------|

D2           D                 Bm
All would be well if, if, if,  if, if.
Bm      C     Em       A A A2 A  A4 A4 A A A2 A A4
Say the green bells of Car - diff.
E--------------------------------------------------|
B--------------------------0--2--3---------0--2--3-|
G------------------------2---------------2---------|
D----------------------2-------------0-2-----------|
A--------------------------------------------------|
E--------------------------------------------------|

A4     D                    Bm
Why so wor-ried,  sis-ters, why?
Bm      G                E
Say the sil-ver bells of Wye.
E   D2            D       D4 D4 D4 D D2
And what will you give me?
D2      G   Bm7      E      D     D2  D   D D4  D D2
Say the sad bells of Rhym - ney.
E----------------------------------0--2-----3p2-2-0-|
B-----------------------------3-----------3---------| 2x
G-------------------------------2-------------------|
D---------------------------0-----------------------|
A---------------------------------------------------|
E---------------------------------------------------|

Lead solo:

E-5-5--5-5--5---5-5---7--5-5--7--7-5---|
B---7---------7----------7-----------7-|
G--------------------------------------|
D--------------------------------------|
A--------------------------------------|
E--------------------------------------|

E-5-5--5-5--5----5-5--7--5-5---------------|
B-7------------7-------------7--5--7-7-5-5-|
G------------------------------------------|
D------------------------------------------|
A------------------------------------------|
E------------------------------------------|

E----3-3--3--------3-3--3-----7--7-7--7-------7-7--0---|
B-----------3---5---------3---8---------8--8---------0-|
G-0---------------------------9------------------------|
D------------------------------------------------------|
A------------------------------------------------------|
E------------------------------------------------------|

E-3--3-3--3--------3-3--3----3--3-3--3--3-2--0-|
B-3---------3---5---------3--2-------2---------|
G-0--------------------------3-------3---------|
D----------------------------------------------|
A----------------------------------------------|
E----------------------------------------------|

  D     D2 D   D D4  D D2
E-------0--2-----3p2-2-0-|
B---3----------3---------| 2x
G-----2------------------|
D-0----------------------|
A------------------------|
E------------------------|

Repeat 1st 8 verses.
(Blai-na)
      D     D2 D   D D4  D D2
E-----------0--2-----3p2-2-0-|
B-------3----------3---------| 2x
G---------2------------------|
D-----0----------------------|
A----------------------------|
E----------------------------|

  G       D       E          D     D2 D   D D4  D D2
  Aaaaah, aaaaah, aaaaaaaah, aaaaaaaah.
E----------------------------------0--2-----3p2-2-0-|
B------------------------------3----------3---------|
G--------------------------------2------------------|
D----------------------------0----------------------|
A---------------------------------------------------|
E---------------------------------------------------|

  D     D2 D   D D4  D D2
E-------0--2-----3p2-2-0-|
B---3----------3---------|
G-----2------------------|
D-0----------------------|
A------------------------|
E------------------------|

  G       D       A
  Aaaaah, aaaaah, aaaaaaaaaaah,

  D     D2 D   D D4  D D2  D     D2 D   D D4  D D2    D
  aaaaaaaaaaaaaaaaaaaaaaaaaaaaaaaaaaaaaaaaa(fade)ah.
E-------0--2-----3p2-2-0---------0--2-----3p2-2-0-----2-|
B---3----------3-------------3----------3---------3---3-|
G-----2------------------------2--------------------2-2-|
D-0------------------------0--------------------------0-|
A-----------------------------------------------------x-|
E-----------------------------------------------------x-|

Chord idagrams:
D      Dsus(D2) Dsus4(D4) G      Bm7
xx0232 xx0230   xx0233    355433 224232
A      Asus(A2) Asus4(A4) E      Bm
002220 002200   002230    022100 xx4432

E,B,G,D,A,E = guitar strings, p = pull off.

To play the D chord sequences just add and remove the little and
middle fingers.
To play the A chord sequences just add and remove the little and
ring finger.
I struggled a little with the lead solo but I think it is close
enough to have some fun with.  Or improve upon..
Tabbed from: The Byrds. Mr. Tambourine Man CD.
comments
We did not receive enough feedback on this tab! Please rate:
print report bad tab
1 2 3 4 5
I want to post or [tab]
guest
You may want to rate the tab now too:
select rating
Please do not post tabs as comments. Select "correction" instead!