Oops, an error
Loading. Please wait.

The Day Walk Tab

144 views 1 this week
no commentswrite comment
1 2 3 4 5
please rate
add to favorites
launch autoscroll
font size
0
reset
how to read this tab
guitar tuner
Tab Pro tools
  • play this tab
  • loop segment
  • change instrument
  • show fretboard
  • metronome
Autoscroll
slow
fast
+/-
esc
set tempo
stop
Contributor
Intro:

E---------------------------|
B---------------------------|
G---------------------------|  Bass 1x  Palm mute
D----------0-3--2-3-2-0-----|
A------2-3--------------3-0-|
E-3-3-----------------------|

  G        F
E-3-3----0-1------1-0-1-0---|
B------3------------------3-|  Lead comes in over bass
G---------------------------|   3x
D----------0-3--2-3-2-0-----|
A------2-3--------------3-0-|  Bass
E-3-3-----------------------|

F       G                        F
In your green room  sit,  with a can-dle  lit.
F  G                     F                    Am7
On the char-coal  pit of dreams,  you car-ry  on.
Am7        G                           F
Though the streets are  hot,  you  can still a lot.
F            G                 F                  Am7
That you can walk out  and for-get,  there is-n't time
Am7        C        C7
to take  a-long.
C7         F
But you're now in-to some-thing that
G                      A
you were im-mune to be-fore.
A         F
And there was-n't  a sign
F        G                      A        F
You just fell in-to line at the door.
F       G                        F
And the quest-ion  sands, in the palms of hands.
F      G                    F                  Am7
Of the wret-ches  pick-ing  pie-ces  of their  minds.
Am7         C
Up off  the floor.

  G         F
E-3-3-----0-1--1-1-0-1-0---|
B------3-----------------3-| 2x
G--------------------------|
D--------------------------|
A--------------------------|
E--------------------------|

  F(5thfr)             C(3rdfr)
E-5--5-5--5-5---5-5--5-3----3-|
B-------------------------5---|
G-----------------------------|
D-----------------------------|
A-----------------------------|
E-----------------------------|

       G                        F
On the man-tel  place  there is still a trace.
F      G                   F                    Am7
Of the plas-tic face,  you hung  your mo-ments  on.
Am7     G                     F
And the sud-den  scare,  of a land-ing there.
F      G                      F             Am7
On the scene  that you don't  care  to even see.
Am7            C        C7
When you're  a-lone.
C7       F
But, the day is too short
F       G                          A
and you can't find sup-port in the sun.
A       F                             G
You had thought you'd de-cide to just stick
G                  A         F
out the ride as it comes.
F       G                  F
But the emp-ti - ness of a thing that's less
F         G                  F
than what it was  thought to be.
F             Am7                           C
Has left you  won - der-ing,  just how much more.

  G        F
E-3-3----0-1--1-1-0-1-0---|
B------3----------------3-|  2x
G-------------------------|
D-------------------------|
A-------------------------|
E-------------------------|

 F(5thfr)             C(3rdfr)
E5--5-5--5-5---5-5--5-3----3-|
B------------------------5---|
G----------------------------|
D----------------------------|
A----------------------------|
E----------------------------|

  G        F
E-3-3----0-1--1-1-0-1-0---|
B------3----------------3-|  2x
G-------------------------|
D-------------------------|
A-------------------------|
E-------------------------|

  F(5thfr)               G/E(7thfr)
E-5--5-5--5-5---5-5-5--5-0-|
B--------------------------|
G--------------------------|
D--------------------------|
A--------------------------|
E--------------------------|

Chord diagrams:
F      G      C      C7     Am7    A      F(5thfr) C(3rdfr) G/E(7thfr)
x33211 x55433 032010 032310 x02010 003330 xx7565   xx5553   xx9780

Tabbed from:  The Byrds Turn! Turn! Turn! CD.  Bonus track #12

??Anyone else hear a little bit of old Moody Blues sound in this song??
comments
We did not receive enough feedback on this tab! Please rate:
print report bad tab
1 2 3 4 5
I want to post or [tab]
guest
You may want to rate the tab now too:
select rating
Please do not post tabs as comments. Select "correction" instead!