Oops, an error
Loading. Please wait.

Take My Hand Acoustic tab

version 1
version 1

Whole song

by The Cab
22,873 views 1 this week
2 commentsread comments
1 2 3 4 5
x 7
add to favorites
×
Save as Personal and add changes to this tab that will be seen only by you. Learn more ›
×
You can save this tab as Personal to edit and correct it or add notes. All changes will be seen only by you. Learn more »
launch autoscroll
font size
0
reset
how to read this tab
guitar tuner
edit
Autoscroll
slow
fast
+/-
esc
set tempo
stop
Hey umm this is my first tab ive seen a video cover of this song
and i thought id share it all with you =)
if there are any mistakes or if you play it another way feel free to
e-mail me at initialg86@hotmail.com and ill fix any errors pointed out

Tuning is: dropped D
your going to have to watch the video for the rhythm
http://www.youtube.com/watch?v=QMphai7JJR8&feature=related

this tab was made according to the video and not how the cab plays it

Legend
x-muted note
/-slide

Intro/Verse 1
e|----------------------------------------|
B|----------------------------------------|
G|----------------------------------------|
D|-5---------8----------3---------1-------|
A|-5---------8----------3---------1-------| 
D|-5---------8----------3---------1-------|
   Calm your nerves now dont worry just breathe

e|----------------------------------------|
B|----------------------------------------|
G|----------------------------------------|
D|-5-------8--------3------------------1--|
A|-5-------8--------3------------------1--| 
D|-5-------8--------3------------------1--|
   Are you sure now dont bother packing just leave

Pre-Chorus
e|--------------------------------------------------------|
B|--------------------------------------------------------|
G|--------------------------------------------------------|
D|-5----------------------8-----------3--------------1----|
A|-5----------------------8-----------3--------------1----| 
D|-5----------------------8-----------3--------------1----|
   Said you wanted change I hope that you remain the same

e|-------------------------------------------------------------|
B|-------------------------------------------------------------|
G|-------------------------------------------------------------|
D|-1------------5---------------------8----------3-------1-----|
A|-1------------5---------------------8----------3-------1-----| 
D|-1------------5---------------------8----------3-------1-----|
   To show that this is not a game lets end this tragedy today

Instrumental
e|--------------------|
B|--------------------|
G|-3/-5/-7/-10--------|
D|-x--x--x--x---------|
A|-1/-3/-5/-8---------| 
D|--------------------|

Chorus 1
e|----------------------------------------|
B|----------------------------------------|
G|----------------------------------------|
D|-1---55-----33----------------8-8-------|
A|-1---55-----33----------------8-8-------| 
D|-1---55-----33----------------8-8-------|
   Now take my hand and we will run away

e|----------------------------------------|
B|----------------------------------------|
G|----------------------------------------|
D|-1----55------33-----------8-8----------|
A|-1----55------33-----------8-8----------| 
D|-1----55------33-----------8-8----------|
   Down to this place that i know

e|----------------------------------------|
B|----------------------------------------|
G|----------------------------------------|
D|-1---55-------33--------8---------------|
A|-1---55-------33--------8---------------| 
D|-1---55-------33--------8---------------|
   How did this night become the enemy?

e|----------------------------------------|
B|----------------------------------------|
G|----------------------------------------|
D|-1--------55-------33-------888---------|
A|-1--------55-------33-------888---------| 
D|-1--------55-------33-------888---------|
   Its over its over its over

Second Instrumental
e|--------------------|
B|--------------------|
G|--------------------|
D|-1--play a few times|
A|-1------------------| 
D|-1------------------|

Verse 2
e|----------------------------------------------------|
B|----------------------------------------------------|
G|----------------------------------------------------|
D|-5--------8-------3---------------1-----------------|
A|-5--------8-------3---------------1-----------------| 
D|-5--------8-------3---------------1-----------------|
   Lay down with me let me hold you baby just breathe

e|----------------------------------------------------|
B|----------------------------------------------------|
G|----------------------------------------------------|
D|-5-------8------3-----------------------1-----------|
A|-5-------8------3-----------------------1-----------| 
D|-5-------8------3-----------------------1-----------|
   This is ending and we will get through eventually

Pre-Chorus
e|--------------------------------------------------------|
B|--------------------------------------------------------|
G|--------------------------------------------------------|
D|-5----------------------8-----------3--------------1----|
A|-5----------------------8-----------3--------------1----| 
D|-5----------------------8-----------3--------------1----|
   Said you wanted change I hope that you remain the same

e|-------------------------------------------------------------|
B|-------------------------------------------------------------|
G|-------------------------------------------------------------|
D|-1------------5---------------------8----------3-------1-----|
A|-1------------5---------------------8----------3-------1-----| 
D|-1------------5---------------------8----------3-------1-----|
   To show that this is not a game lets end this tragedy todayyy

Instrumental
e|--------------------|
B|--------------------|
G|-3/-5/-7/-10--------|
D|-x--x--x--x---------|
A|-1/-3/-5/-8---------| 
D|--------------------|

Chorus 2
e|----------------------------------------|
B|----------------------------------------|
G|----------------------------------------|
D|-1---55-----33----------------8-8-------|
A|-1---55-----33----------------8-8-------| 
D|-1---55-----33----------------8-8-------|
   Now take my hand and we will run away

e|----------------------------------------|
B|----------------------------------------|
G|----------------------------------------|
D|-1----55------33-----------8-8----------|
A|-1----55------33-----------8-8----------| 
D|-1----55------33-----------8-8----------|
   Down to this place that i know

e|----------------------------------------|
B|----------------------------------------|
G|----------------------------------------|
D|-1---55-------33--------8---------------|
A|-1---55-------33--------8---------------| 
D|-1---55-------33--------8---------------|
   How did this night become the enemy?

e|----------------------------------------|
B|----------------------------------------|
G|----------------------------------------|
D|-1--------55-------33-------888---------|
A|-1--------55-------33-------888---------| 
D|-1--------55-------33-------888---------|
   Its over its over its over

e|----------------------------------------|
B|----------------------------------------|
G|----------------------------------------|
D|-1---55-----33----------------8-8-------|
A|-1---55-----33----------------8-8-------| 
D|-1---55-----33----------------8-8-------|
       Take my hand and we will run away

e|----------------------------------------|
B|----------------------------------------|
G|----------------------------------------|
D|-1----55------33-----------8-8----------|
A|-1----55------33-----------8-8----------| 
D|-1----55------33-----------8-8----------|
   Down to this place that i know

e|----------------------------------------|
B|----------------------------------------|
G|----------------------------------------|
D|-1---55-------33---------------8--------|
A|-1---55-------33---------------8--------| 
D|-1---55-------33---------------8--------|
   How did this night become the enemy?

e|---------------------------------|
B|---------------------------------|
G|---------------------------------|
D|-1---55-------33-------8----1----|
A|-1---55-------33-------8----1----| 
D|-1---55-------33-------8----1----|
   Its over its over its over now

Bridge
e|-----------------------------------------------|
B|-----------------------------------------------|
G|-----------------------------------------------|
D|-5-------------------1---------------------(x3)|
A|-5-------------------1-------------------------| 
D|-5-------------------1-------------------------|
   We wont be apart of We wont be apart of this

Chorus 3
Clap your hands to the beat haha

Take my hand and we will run away down to this place that i know
How did this night become the enemy its over its over its over

Outro
e|----------------------------|
B|----------------------------|
G|----------------------------|
D|-1---55-----33----8-8-------|
A|-1---55-----33----8-8-------| 
D|-1---55-----33----8-8-------|
       Take my hand 

e|----------------------------|
B|----------------------------|
G|----------------------------|
D|-1---55-----33----8-8-------|
A|-1---55-----33----8-8-------| 
D|-1---55-----33----8-8-------|
       Take my hand 

e|----------------------------------------|
B|----------------------------------------|
G|----------------------------------------|
D|-1---55-------33---------------8--------|
A|-1---55-------33---------------8--------| 
D|-1---55-------33---------------8--------|
   How did this night become the enemy?

e|---------------------------------|
B|---------------------------------|
G|---------------------------------|
D|-1---55-------33-------8----1----|
A|-1---55-------33-------8----1----| 
D|-1---55-------33-------8----1----|
   Its over its over its over now

Thanks for looking at my tab
more to come =)
-Greg

            
            
Suggest correction
Creating personal tab
Creating personal tab
You can edit any tab online and save it as your Personal.

You can edit, replace or remove any tab part or add personal notes – all changes will be seen only by you.

Personal tabs can be accessed anytime from any device, even offline.
Learn more »
comments
print report bad tab
2 comments total.
+1 reply
TSOMHSP 51 Aug 19, 2008 11:20 AM

The Instrumental before the bridge should be
e------------
B------------
G------------(hit guitar four times)
D-1-1-1-1-1--
A-1-1-1-1-1--
D-1-1-1-1-1--

And the bridge chords should be switched around

0 reply
TSOMHSP 51 Aug 19, 2008 11:23 AM

http://www.youtube.com/watch?v=OFN82g3e4Zs&NR=1

guest
You may want to rate the tab now too:
select rating
Wanna post a correction for this tab? Suggest correction