Oops, an error
Loading. Please wait.

Im Southern tab

version 2
version 2

Whole song

  • Involves more open notes, making it closer to the original and easier to play.
46 views 12 this week
no commentswrite comment
1 2 3 4 5
3 more votes to show rating
add to favorites
×
Save as Personal and add changes to this tab that will be seen only by you. Learn more ›
×
You can save this tab as Personal to edit and correct it or add notes. All changes will be seen only by you. Learn more »
launch autoscroll
font size
0
reset
how to read this tab
guitar tuner
edit
Autoscroll
slow
fast
+/-
esc
set tempo
stop
About this tab version
Involves more open notes, making it closer to the original and easier to play. Was this info helpful? Yes No
[Intro]
E|---------------------|
B|---7\/7--------------|
G|---7\/7--------------|
D|---7\/7--------------|
A|---------------------|
D|---------------------|     *Use slide or push forward on guitar neck holding down same fret.

 "1..2..3..4"
E|------------------|
B|------------------|
G|------------------|
D|---------15\\\----|
A|---------15\\\----|
D|---------15\\\----|

(2x)

E|---------------------------------------------------------------------|
B|---------------------------------------------------------------------|
G|---------------------------------------------------------------------|
D|-----0---3'--0-----0---------------------0---3'--0---3--5--3--5--3--5|
A|-0-3---0-------0-3-------------------0-3---0-------0-3--5--3--5--3--5|
D|---------------------0-------------------------------3--5--3--5--3--5|

[Verse]
 Well, I'm the first one to say ladies first
E|--------------------------------------------|
B|--------------------------------------------|
G|--------------------------------------------|
D|-------------0--0------0---3/5-------0--0---|
A|-------------0--0------0---3/5-------0--0---|
D|-------------0--0------0---3/5-------0--0---|

           Last one at the bar with a thirst, yeah
E|----------------------------------------------|
B|----------------------------------------------|
G|----------------------------------------------|
D|-------------0--0------0---3/5-------0--0---0-|
A|-------------0--0------0---3/5-------0--0---0-|
D|-------------0--0------0---3/5-------0--0---0-|

 Hard to hate and hard to love, that's right
E|--------------------------------------------|
B|--------------------------------------------|
G|--------------------------------------------|
D|-------------0--0------0---3/5-------0--0---|
A|-------------0--0------0---3/5-------0--0---|
D|-------------0--0------0---3/5-------0--0---|

 Open up a can of hell in a fight
E|----------------------------------------------|
B|----------------------------------------------|
G|----------------------------------------------|
D|-------------0--0------0---3/5-------0--0---0-|
A|-------------0--0------0---3/5-------0--0---0-|
D|-------------0--0------0---3/5-------0--0---0-|

 Yeah, that's whiskey and cigarettes on my breath
E|--------------------------------------------|
B|--------------------------------------------|
G|--------------------------------------------|
D|-------------0--0------0---3/5-------0--0---|
A|-------------0--0------0---3/5-------0--0---|
D|-------------0--0------0---3/5-------0--0---|

 Or better than an old Tom Petty cassette
E|----------------------------------------------|
B|----------------------------------------------|
G|----------------------------------------------|
D|-------------0--0------0---3/5-------0--0---0-|
A|-------------0--0------0---3/5-------0--0---0-|
D|-------------0--0------0---3/5-------0--0---0-|

 And I don't always make it on Sundays to Jesus
E|--------------------------------------------|
B|--------------------------------------------|
G|--------------------------------------------|
D|-------------0--0------0---3/5-------0--0---|
A|-------------0--0------0---3/5-------0--0---|
D|-------------0--0------0---3/5-------0--0---|

 But I do good and hopes that he smiles when I mean it
E|----------------------------------------------|
B|----------------------------------------------|
G|----------------------------------------------|
D|-------------0--0------0---3/5-------0--0---0-|
A|-------------0--0------0---3/5-------0--0---0-|
D|-------------0--0------0---3/5-------0--0---0-|

Cause I'm…

[Chorus]
 Southern And it ain't my fault    My daddy came from Louisiana Like the hot sauce
E|---------------------------------------------------------------------|
B|---------------------------------------------------------------------|
G|---------------------------------------------------------------------|
D|-----0---3'--0-----0---------------------0---3'--0-----0-5--5--------|
A|-0-3---0-------0-3-------------------0-3---0-------0-3---5--5--------|
D|---------------------0-----------------------------------5--5--------|

 Southern And it ain't my fault   Yeah this is how we roll Baby, this is how we roll
E|---------------------------------------------------------------------|
B|---------------------------------------------------------------------|
G|---------------------------------------------------------------------|
D|-----0---3'--0-----0---------------------0---3'--0-----0-5--5--------|
A|-0-3---0-------0-3-------------------0-3---0-------0-3---5--5--------|
D|---------------------0-----------------------------------5--5--------|

[Post-Chorus]
(2x)
E|---------------------------------------------------------------------|
B|------------------------3--------------------------------------------|
G|------------------------2--------------------------------------------|
D|-----0---3'--0-----0----0----------------0---3'--0-----0-5--5--------|
A|-0-3---0-------0-3------0------------0-3---0-------0-3---5--5--------|
D|---------------------0--0--------------------------------5--5--------|

[Verse]
 Well, my family's full of crazy Cajuns
E|--------------------------------------------|
B|--------------------------------------------|
G|--------------------------------------------|
D|-------------0--0------0---3/5-------0--0---|
A|-------------0--0------0---3/5-------0--0---|
D|-------------0--0------0---3/5-------0--0---|

 From the looks of me, you'd say well it's contagious
E|----------------------------------------------|
B|----------------------------------------------|
G|----------------------------------------------|
D|-------------0--0------0---3/5-------0--0---0-|
A|-------------0--0------0---3/5-------0--0---0-|
D|-------------0--0------0---3/5-------0--0---0-|

 Cause I can feel it running down through my blood, yeah
E|--------------------------------------------|
B|--------------------------------------------|
G|--------------------------------------------|
D|-------------0--0------0---3/5-------0--0---|
A|-------------0--0------0---3/5-------0--0---|
D|-------------0--0------0---3/5-------0--0---|

 And it feels like a boot and big tires to mud
E|----------------------------------------------|
B|----------------------------------------------|
G|----------------------------------------------|
D|-------------0--0------0---3/5-------0--0---0-|
A|-------------0--0------0---3/5-------0--0---0-|
D|-------------0--0------0---3/5-------0--0---0-|

 If you don't like me, that's alright
E|--------------------------------------------|
B|--------------------------------------------|
G|--------------------------------------------|
D|-------------0--0------0---3/5-------0--0---|
A|-------------0--0------0---3/5-------0--0---|
D|-------------0--0------0---3/5-------0--0---|

 You can kiss my ass and honey, I'll get by now
E|----------------------------------------------|
B|----------------------------------------------|
G|----------------------------------------------|
D|-------------0--0------0---3/5-------0--0---0-|
A|-------------0--0------0---3/5-------0--0---0-|
D|-------------0--0------0---3/5-------0--0---0-|

 Cause where I'm from that's what we do, yeah
E|--------------------------------------------|
B|--------------------------------------------|
G|--------------------------------------------|
D|-------------0--0------0---3/5-------0--0---|
A|-------------0--0------0---3/5-------0--0---|
D|-------------0--0------0---3/5-------0--0---|

 If you was born down here you'd probably do it too
E|----------------------------------------------|
B|----------------------------------------------|
G|----------------------------------------------|
D|-------------0--0------0---3/5-------0--0---0-|
A|-------------0--0------0---3/5-------0--0---0-|
D|-------------0--0------0---3/5-------0--0---0-|

Cause I'm…

[Chorus]
 Southern And it ain't my fault    My daddy came from Louisiana Like the hot sauce
E|---------------------------------------------------------------------|
B|---------------------------------------------------------------------|
G|---------------------------------------------------------------------|
D|-----0---3'--0-----0---------------------0---3'--0-----0-5--5--------|
A|-0-3---0-------0-3-------------------0-3---0-------0-3---5--5--------|
D|---------------------0-----------------------------------5--5--------|

 Southern And it ain't my fault   Yeah this is how we roll Baby, this is how we roll
E|---------------------------------------------------------------------|
B|---------------------------------------------------------------------|
G|---------------------------------------------------------------------|
D|-----0---3'--0-----0---------------------0---3'--0-----0-5--5--------|
A|-0-3---0-------0-3-------------------0-3---0-------0-3---5--5--------|
D|---------------------0-----------------------------------5--5--------|

[Bridge]
E|---------------------------------|
B|---------------------------------|
G|-5-5-5-5-5-5-5-5-5-5-5-5-5-5-5-5-|
D|-7-7-7-7-7-7-7-7-7-7-7-7-7-7-7-7-|
A|---------------------------------|
D|---------------------------------|

(2x)

E|---------------------------------------------------------------------|
B|------------------------3--------------------------------------------|
G|------------------------2--------------------------------------------|
D|-----0---3'--0-----0----0----------------0---3'--0---3--5--3--5--3--5|
A|-0-3---0-------0-3------0------------0-3---0-------0-3--5--3--5--3--5|
D|---------------------0--0----------------------------3--5--3--5--3--5|

E|-----------------|
B|-----------------|
G|-----------------|
D|-0-0---0-0---0-0-|
A|-0-0---0-0---0-0-|
D|-0-0---0-0---0-0-|

I'm a take it or leave it kind of man

E|-----------------|
B|-----------------|
G|-----------------|
D|-0-0---0-0---0-0-|
A|-0-0---0-0---0-0-|
D|-0-0---0-0---0-0-|

A bottle and a smoke and a light

E|-----------------|
B|-----------------|
G|-----------------|
D|-0-0---0-0---0-0-|
A|-0-0---0-0---0-0-|
D|-0-0---0-0---0-0-|

Sing along if you understand

E|-----|
B|-----|
G|-----|
D|-12--|
A|-12--|
D|-12--|

If you don't draw a line in the sand

 Cause I'm southern, yeah
E|---------------------------------------|
B|---------------------------------------|
G|---------------------------------------|
D|---------12\0----12\0----12\0----3---5-|
A|---------12\0----12\0----12\0----3---5-|
D|---------12\0----12\0----12\0----3---5-|

 Ooh, yeah, I'm southern
E|---------------------------------------|
B|---------------------------------------|
G|---------------------------------------|
D|---------12\0----12\0----12\0----3---5-|
A|---------12\0----12\0----12\0----3---5-|
D|---------12\0----12\0----12\0----3---5-|

Well I'm…

[Chorus]
 Southern And it ain't my fault   My daddy came from Louisiana Like the hot sauce
E|---------------------------------------------------------------------|
B|---------------------------------------------------------------------|
G|---------------------------------------------------------------------|
D|-----0---3'--0-----0---------------------0---3'--0-----0-5--5--------|
A|-0-3---0-------0-3-------------------0-3---0-------0-3---5--5--------|
D|---------------------0-----------------------------------5--5--------|

 Southern And it ain't my fault  Yeah this is how we roll Baby, this is how we roll
E|---------------------------------------------------------------------|
B|---------------------------------------------------------------------|
G|---------------------------------------------------------------------|
D|-----0---3'--0-----0---------------------0---3'--0-----0-5--5--------|
A|-0-3---0-------0-3-------------------0-3---0-------0-3---5--5--------|
D|---------------------0-----------------------------------5--5--------|

[Outro]
  Southern And it ain't my fault   My daddy came from Louisiana Like the hot sauce
E|----------------------------------------------------------------------|
B|----------------------------------------------------------------------|
G|----------------------------------------------------------------------|
D|-0-------0------3--------3--------5--------5--------5-0-0-------0-----|
A|-0-------0------3--------3--------5--------5--------5-0-0-------0-----|
D|-0-------0------3--------3--------5--------5--------5-0-0-------0-----|

  Southern And it ain't my fault   This is how we roll
E|----------------------------------------------------------------|
B|----------------------------------------------------------------|
G|----------------------------------------------------------------|
D|-0-------0------3--------3--------5-----------------------------|
A|-0-------0------3--------3--------5-----------------------------|
D|-0-------0------3--------3--------5-----------------------------|

 This is how we roll
E|------------------|
B|--------------3---|
G|--------------2---|
D|--------------0---|
A|--------------0---|
D|--------------0---|



************************************

| \  Slide down
| /  Slide up
| '  
| \/ 

************************************
Suggest correction
Creating personal tab
Creating personal tab
You can edit any tab online and save it as your Personal.

You can edit, replace or remove any tab part or add personal notes – all changes will be seen only by you.

Personal tabs can be accessed anytime from any device, even offline.
Learn more »
Give kudos to tab author, rate the tab!
1 2 3 4 5
comments
print report bad tab
guest
You may want to rate the tab now too:
select rating
Wanna post a correction for this tab? Suggest correction