Oops, an error
Loading. Please wait.

Sunday Will Never Be The Same bass

43 views 1 this week
no commentswrite comment
1 2 3 4 5
3 more votes to show rating
add to favorites
×
Save as Personal and add changes to this tab that will be seen only by you. Learn more ›
×
You can save this tab as Personal to edit and correct it or add notes. All changes will be seen only by you. Learn more »
launch autoscroll
font size
0
reset
guitar tuner
edit
Autoscroll
slow
fast
+/-
esc
set tempo
stop
Author
Difficulty
Tabbed by: 6METAL6BASSIST6
E-mail: petergriffinav@gmail.com

Tuning: EADG

G|----------------------------------------------------------------|
D|----------------------------------------------------------------|
A|4-------3-------1---------------6-------4-------3---------------|
E|----------------------------------------------------------------|

G|----------------------------------------------------------------|
D|----------------------------------------------------------------|
A|4-------3-------1---------------6-------------------------------|
E|------------------------------------------------4---------------|

G|----------------------------------------------------|
D|----------------------------------------------------|
A|------------6-------------------------------3---4---|
E|----------------4-----------4---4---4---6-----------|

0:11

G|----------------------------------------------------------------|
D|----------------------------------------------------------------|
A|4---------------4-------4---3---1---------------1-------3---5---|
E|------------4-------------------------------1-------------------|

G|----------------------------------------------------------------|
D|----------------------------8---6---------------6---------------|
A|6---------------6-----/-9-------------------6-------6---3---6---|
E|------------6---------------------------------------------------|

G|----------------------------------------------------------------|
D|----------------------------------------------------------------|
A|4---------------4-------4---3---1---------------1-------3---5---|
E|------------4-------------------------------1-------------------|

G|----------------------------------------------------------------|
D|------------4---5-------5---5---6-------6-------6---4-------4---|
A|6-------------------------------------------------------6-------|
E|----------------------------------------------------------------|

G|--------------------------------|
D|----------------6---4---3-------|
A|--------3---6---------------6---|
E|4---6---------------------------|

0:27

G|----------------------------------------------------------------|
D|--------------------3---------------------------------------3---|
A|4---------------4-------4---3---1---------------1---3---5-------|
E|------------4-------------------------------1-------------------|

G|----------------------------------------------------------------|
D|----------------------------8---6---------------6---------------|
A|6---------------6---8---9-------------------6-------6---3---6---|
E|------------6---------------------------------------------------|

G|----------------------------------------------------------------|
D|--------------------3---------------------------------------3---|
A|4---------------4-------4---3---1---------------1---3---5-------|
E|------------4-------------------------------1-------------------|

G|----------------------------------------------------------------|
D|------------4---5-------5---5---6-------6-------6---4-------4---|
A|6-------------------------------------------6-----------6-------|
E|----------------------------------------------------------------|

0:41

G|--------------------------------------------------------3-------|
D|------------------------3---6---4-------4-------4---6-------4---|
A|4-------4-------4---6-----------------------4-------------------|
E|------------4---------------------------------------------------|

G|--------------------------------------------------------3-------|
D|------------------------3---6---4-------4-------4---6-------4---|
A|4-------4-------4---6-----------------------4-------------------|
E|------------4---------------------------------------------------|

G|----------------------------------------------------3-----------|
D|------------------------3---6---4-------4-------4-------4---3---|
A|4-------4-------4---6-----------------------4-------------------|
E|------------4---------------------------------------------------|

G|----------------------------------------------------------------|
D|--------8-----------------------------------4---6---4-------4---|
A|6-----------6---6---4---3---------------6---------------6-------|
E|----------------------------6---4-------------------------------|

G|--------------------------------|
D|6---4-------4---6---4---3-------|
A|--------6-------------------6---|
E|--------------------------------|

0:58

G|----------------------------------------------------------------|
D|----------------------------------------------------------------|
A|4---------------4-------4---3---1---------------1-------3---5---|
E|------------4-------------------------------1-------------------|

G|----------------------------------------------------------------|
D|----------------------------8---6---------------6---------------|
A|6---------------6-------9-------------------6-------6---3---6---|
E|------------6---------------------------------------------------|

G|----------------------------------------------------------------|
D|----------------------------------------------------------------|
A|4---------------4-------4---3---1---------------1-------3---5---|
E|------------4-------------------------------1-------------------|

G|----------------------------------------------------------------|
D|------------4---5-------5---5---6-------6-------6---4-------4---|
A|6-------------------------------------------------------6-------|
E|----------------------------------------------------------------|

G|--------------------------------|
D|----------------6---4---3-------|
A|--------3---6---------------6---|
E|4---4---------------------------|

1:13

G|----------------------------------------------------------------|
D|--------------------3---------------------------------------3---|
A|4---------------4-------4---3---1---------------1---3---5-------|
E|------------4-------------------------------1-------------------|

G|----------------------------------------------------------------|
D|----------------------------8---6---------------6---------------|
A|6---------------6---8---9-------------------6-----------3---6---|
E|------------6---------------------------------------------------|

G|----------------------------------------------------------------|
D|--------------------3---------------------------------------3---|
A|4---------------4-------4---3---1---------------1---3---5-------|
E|------------4-------------------------------1-------------------|

G|----------------------------------------------------------------|
D|------------4---5-------5---5---6-------6-------6---4-------6---|
A|6-------------------------------------------6-----------6-------|
E|----------------------------------------------------------------|

1:28

G|--------------------------------------------------------3-------|
D|------------------------3---6---4-------4-------4---6-------4---|
A|4-------4-------4---6-----------------------4-------------------|
E|------------4---------------------------------------------------|

G|--------------------------------------------------------3-------|
D|------------------------3---6---4-------4-------4---6-------4---|
A|4-------4-------4---6-----------------------4-------------------|
E|------------4---------------------------------------------------|

G|----------------------------------------------------3-----------|
D|------------------------3---6---4-------4-------4-------4---3---|
A|4-------4-------4---6-----------------------4-------------------|
E|------------4---------------------------------------------------|

G|--------3-------------------------------------------------------|
D|------------4-------------------------------4---6---4-------4---|
A|6---------------6---4---3---------------6---------------6-------|
E|----------------------------6---4-------------------------------|

G|--------------------------------|
D|6---4-------4---6---4---3-------|
A|--------6-------------------6---|
E|--------------------------------|

1:44

G|----------------------------------------------------------------|
D|----------------------------------------------------------------|
A|4-----------4---------------4---------------4---------------4---|
E|----4---6-----------4---6-----------4---6-----------4---6-------|

G|----------------------------------------------------------------|
D|----------------------------------------------------------------|
A|4-----------4---------------4---------------4---------------4---|
E|----4---6-----------4---6-----------4---6-----------4-----------|

G|----------------------------------------------------------------|
D|----------------------------------------------------------------|
A|------------4---------------4---------------4---------------4---|
E|----4---6-----------4---6-----------4---6-----------4---6-------|

G|----------------------------------------------------------------|
D|----------------------------------------------------------------|
A|4---------------------------------------------------------------|
E|------------4-----------4-----------4-----------4-------4-------|

G|------------------------|
D|------------------------|
A|------------------------|
E|4-----------------------|

2:00

G|----------------------------------------------------------------|
D|----------------------------------------------------------------|
A|4-------3-------1---------------6-------4-------3---------------|
E|----------------------------------------------------------------|

G|----------------------------------------------------------------|
D|----------------------------------------------------------------|
A|4-------3-------1---------------6-------------------------------|
E|------------------------------------------------4-----------4---|

G|------------------------------------------------|
D|------------------------------------------------|
A|------------------------------------------------|
E|4---4---4---4---5---5---5---5---5---5---5---5---|

G|--------------------------------------------------------4-------|
D|------------------------4---7---5-------5-------5---7-------5---| until fadeout.
A|5-------5-------5---7-----------------------5-------------------|
E|------------5---------------------------------------------------|
Suggest correction
Creating personal tab
Creating personal tab
You can edit any tab online and save it as your Personal.

You can edit, replace or remove any tab part or add personal notes – all changes will be seen only by you.

Personal tabs can be accessed anytime from any device, even offline.
Learn more »
Give kudos to tab author, rate the tab!
1 2 3 4 5
comments
print report bad tab
guest
You may want to rate the tab now too:
select rating
Wanna post a correction for this tab? Suggest correction