Oops, an error
Loading. Please wait.

Bichar Kai Bhee tab

version 1
version 1

Whole song

Interactive

2,781 views 1 this week
2 commentsread comments
1 2 3 4 5
x 3
add to favorites
×
Save as Personal and add changes to this tab that will be seen only by you. Learn more ›
×
You can save this tab as Personal to edit and correct it or add notes. All changes will be seen only by you. Learn more »
launch autoscroll
font size
0
reset
how to read this tab
guitar tuner
edit
Autoscroll
slow
fast
+/-
esc
set tempo
stop
Author
Ok i'm pretty sure this tab is mostly correct cuz i asked xulfi a hundred questions
the tabs b4 actually tabbin it lolz.

the tuning is DADGAD.CHORDS ON THIS TUNING:

D on tuning dadgad: 12-12-12-11-0-0--|
E on tuning dadgad: 2-2-2-1-0-0------|
F# on tuning dadgad: 4-4-4-3-0-0-----|
G# on tuning dadgad: 6-6-6-5-0-0-----|
G on tuning dadgad: 5-5-5-4-0-0------|
A on tuning dadgad: 7-7-7-6-0-0------|
B on tuning dadgad: 9-9-9-8-0-0------|
C on tuning dadgad: 10-10-10-9-0-0---|
C# on tuning dadgad: 11-11-11-10-0-0-|

Intro/Main Riff/Theme/Whatever...

D ---------------------------------------------------------|
A ---------------------------------------------------------|
G -------7---5-------------------0h2h4---2h4s5s4---2-0h2-2-|
D -----5---------9---7---------0---------------------------|
A ---5-----------------5-----0-----------------------------|
D -5-------5---5---5-----5-0-----------0---------0---------|

D ------------------------------------------------------------------|
A ------------------------------------------------------------------|
G -------4---2-------------------11h12---9h11h12p11-----------------|
D -----2---------5---4---------0----------------------12---10p9-7p5-|
A ---2-----------------2-----0--------------------------------------|
D -2-------2---2---2-----2-0-----------0------------0----0----------|

D -----------------------------------------------------------|
A -----------------------------------------------------------|
G -------7---9---7---------------11/12---12/14---11h12---11\-|
D -----5-------------5---------0-----------------------------|
A ---5-----------------5-----0-------------------------------|
D -5-------5---5---5-----5-0-----------0-------0-------0-----|

D -----------------------------------------------------|
A -----------------------------------------------------|
G -------4---2-------------------0h2h4---0-0h2-4-0h2-0-|
D -----2---------5---4---------0-----------0-----------|
A ---2-----------------2-----0-------------0-----------|
D -2-------2---2---2-----2-0-----------0---------------|

Pre Chorus:

D -----0---------0-|
A -0-----0---0-----|
G ---0-----0---0---|    X8
D -----------------|
A -----------------|
D -----------------|

Chorus:

G
Bichar Kai Bhee

C
Alag na ho saka

A         C
Mujhse tuuuuuuuu

Continue like this until Xulfi and Junaid do Heeyy... The slow strum there is of G

Piano Riff in the back:
(YOu can shift this part up to the 19th fret instead of 12th)

D -------12----------12----------12----14----12----|
A ----12----12----12----12----12----12----------12-|
D -12----------12----------12-------------12-------|
G -------------------------------------------------|
A -------------------------------------------------|
D -------------------------------------------------|

REPEAT VERSE

REPEAT PRECHORUS

REPEAT CHORUS

AT THE END OF CHORUS THERE ARE SOME HIGH PIANO NOTES BEING PLAYED. JUST PLAY TAPPED
ON 12TH FRET OF HIGH D.
AND AFTER THE SECOND HEEEEEYYYY, THERE ARE TWO CHORDS STRUMMED, THEY'RE G AND A. THEN 
THE SOLO:

SOLO:

http://ultimate-guitar.com/tabs/t/the_call/bichar_kai_bhee_solo_tab.htm

That's my transcription of the solo...

PIANO BEHIND SOLO:
THIS IS PRETTY LOW STUFF SO I MISS OUT ONE NOTE CUZ THAT'S TOO LOW UNLESS U GO DECIDE TO
HAVE A DROP B TUNING OR SOMETHING. AND U NEED 2 GUITARS, ONE SHOULD BE PLAYING JUST
FRET HIGH D HARMONICS. AND THE OTHER:
(X) MEANS HARMONIC:

D ---(12)---(12)-|
A ---------------|
D ---------------|
G ---------------|
A -2------0------|
D -2------0------|

THE CHORDY PART AFTER THE SOLO:

JUST STRUM THESE FEW CHORDS:

E5, G5 AND A5.

BUT WHEN JUNAID SCREAMS DASTAAN:

C               D
DAASTAAAAAAAAAAAAAAAAAAN

REPEAT VERSE RIFF

REPEAT PRECHORUS

REPEAT CHORUS

JUST PLAY THE CHORUS CHORDS TILL THE END.

            
            
Suggest correction
Creating personal tab
Creating personal tab
You can edit any tab online and save it as your Personal.

You can edit, replace or remove any tab part or add personal notes – all changes will be seen only by you.

Personal tabs can be accessed anytime from any device, even offline.
Learn more »
Give kudos to tab author, rate the tab!
1 2 3 4 5
comments
print report bad tab
2 comments total.
0 reply
Limaj_daas 1,417 Aug 02, 2006 12:20 PM

who voted 1 for this and didn't post a comment?

0 reply
Dushann 10 Jul 10, 2007 09:45 AM

Great!!

guest
You may want to rate the tab now too:
select rating
Wanna post a correction for this tab? Suggest correction