Oops, an error
Loading. Please wait.

Jilawatan tab

version 1
version 1

Whole song

1,064 views 6 this week
3 commentsread comments
1 2 3 4 5
x 3
add to favorites
×
Save as Personal and add changes to this tab that will be seen only by you. Learn more ›
×
You can save this tab as Personal to edit and correct it or add notes. All changes will be seen only by you. Learn more »
launch autoscroll
font size
0
reset
how to read this tab
guitar tuner
edit
Autoscroll
slow
fast
+/-
esc
set tempo
stop
Author
JILAWATAN by CALL (www.thebandcall.com)
tabbed by ahmed nadeem
e-mail comments to ahm3d_nad33m@hotmail.com

title track of the album

INTRO
    [--palm mute--]          [--palm mute--]
e[-------------------------------------------------------]
B[-------------------------------------------------------]
G[-------------------------------------------------------]
D[--------------------0-3-3------------------0-3-3-------]
A[--5-5-5-3-5-5-5-3---0-3-3--5-5-5-3-5-5-5-3-0-3-3-------]
D[--------------------0-3-3------------------0-3-3-------]

    [--palm mute--]          [--palm mute--]
e[-------------------------------------------------------]
B[-------------------------------------------------------]
G[-------------------------------------------------------]
D[--------------------0-3-3------------------0-3-3-------]
A[--5-5-5-3-5-5-5-3---0-3-3--5-5-5-3-5-5-5-3-0-1-1-------]
D[--------------------0-3-3------------------0-3-3-------]

e[-------------------------------------------------------]
B[-------------------------------------------------------]
G[-------------------------------------------------------]
D[--7-7-7-5-7-7-7-5---0-3-3--7-7-7-5-7-7-7-5-0-3-3-------]
A[--5-5-5-3-5-5-5-3---0-3-3--5-5-5-3-5-5-5-3-0-3-3-------]
D[--------------------0-3-3------------------0-3-3-------]

e[-------------------------------------------------------]
B[-------------------------------------------------------]
G[---------------------------------------------3-3-------]
D[--7-7-7-5-7-7-7-5---0-3-3--7-7-7-5-7-7-7-5-0-3-3-------]
A[--5-5-5-3-5-5-5-3---0-3-3--5-5-5-3-5-5-5-3-0-1-1-------]
D[--------------------0-3-3------------------0-----------]

VERSE (PALM MUTED)

e[-------------------------------------------------------]
B[-------------------------------------------------------]
G[-------------------------------------------------------]
D[-----------------3-3-3-3-----------------3-3-3-3-------]
A[-5-5-5-3-5-5-5-3---------5-5-5-3-5-5-5-3---------------]
D[-------------------------------------------------------]

e[-------------------------------------------------------]
B[-------------------------------------------------------]
G[-------------------------------------------------------]
D[-----------------3-3-3-3-------------------------------]
A[-5-5-5-3-5-5-5-3---------5-5-5-3-5-5-5-3-1-1-1-1-------]
D[-------------------------------------------------------]

PRE-CHORUS (X2)

e[----------------------------------------]
B[----------------------------------------]
G[-5-------------5s7-7-7-7-14-14-14-14----]
D[-5-5-3-5-3-0---x-x-x-x-x-x---x--x--x----]
A[-3-5-3-5-3-0---3s5-5-5-5s12-12-12-12----]
D[---5-3-5-3-0----------------------------]

CHORUS

e[-------------------------------------------------------]
B[-------------------------------------------------------]
G[--------------------------5----------------------------]
D[-0-----3-----5-----0------5-5-3------------------------]
A[-0-----3-----5-----0------3-5-3------------------------]
D[-0-----3-----5-----0--------5-3------------------------]

BEFORE BEGINNING OF 2nd VERSE (harmonics)

e[----------------------]
B[----------------------]
G[-----(5)---(5)---(5)--]
D[--(5)---(5)---(5)-----]
A[----------------------]
D[----------------------]


THEN VERSE AND CHORUS

THEN BREAKDOWN/SOLO

THE RHYTHM:
   (palm muted)
e[-------------]
B[-------------]
G[-------------]
D[-10-12-12-12-]
A[-10-12-12-12-]
D[-10-12-12-12-]

THE SOLO (Im Not Really Sure About This!)
(p = pulloff, t= tap, h = hammer-on, b = bend, r = release)

e[--------------------------------------------------]
B[-12----12----12----12----12----12----12----12-----]
G[-14b16-14b16-14b16-14b16-14b16-14b16-14b16-14b16--]
D[--------------------------------------------------]
A[--------------------------------------------------]
D[--------------------------------------------------]

e[-0h1h2t4-1h2t6-1h2t4-1h2t6-1h2t4--]
B[----------------------------------]
G[----------------------------------]
D[----------------------------------]
A[----------------------------------]
D[----------------------------------]

e[-1h2t4-1h2t6-1h2t4-1h2t6-1h2t4-]
B[-------------------------------]
G[-------------------------------]
D[-------------------------------]
A[-------------------------------]
D[-------------------------------]

e[-1h2t4-1h2t4-1h2t4-1h2t4-1h2t6-1h2t6-1h2t6-1h2t6--]
B[--------------------------------------------------]
G[--------------------------------------------------]
D[--------------------------------------------------]
A[--------------------------------------------------]
D[--------------------------------------------------]

e[-1h2t8-1h2t8-1h2t8-1h2t8-1h2t9-1h2t9-1h2t9-1h2t9--]
B[--------------------------------------------------]
G[--------------------------------------------------]
D[--------------------------------------------------]
A[--------------------------------------------------]
D[--------------------------------------------------]

e[-1h2t11-1h2t11-1h2t11-1h2t11-1h2t13-1h2t13-1h2t13-1h2t13--]
B[----------------------------------------------------------]
G[----------------------------------------------------------]
D[----------------------------------------------------------]
A[----------------------------------------------------------]
D[----------------------------------------------------------]

e[-1h2t14-1h2t14-1h2t14-1h2t14-1h2t16(let ring)--]
B[-----------------------------------------------]
G[-----------------------------------------------]
D[-----------------------------------------------]
A[-----------------------------------------------]
D[-----------------------------------------------]

BACK TO CHORUS

and end on:

e[-----------]
B[-----------]
G[--5--------]
D[--5-5-3-0--]
A[--3-5-3-0--]
D[----5-3-0--]



            
            
Suggest correction
Creating personal tab
Creating personal tab
You can edit any tab online and save it as your Personal.

You can edit, replace or remove any tab part or add personal notes – all changes will be seen only by you.

Personal tabs can be accessed anytime from any device, even offline.
Learn more »
Give kudos to tab author, rate the tab!
1 2 3 4 5
comments
print report bad tab
3 comments total.
0 reply
Limaj_daas 1,417 Mar 13, 2006 01:22 AM

The solo of this one the one at IM. The one in the album and other live concerts is different. I think it's barred chords and a lot of bends.

0 reply
zahrocx 41 Apr 11, 2006 07:49 AM

the chorus is a little off......jus the ending.....otherwise its a good job:

e[-------------------------------------------------------]
B[-------------------------------------------------------]
G[-------------------------------------------------------]
D[-0-----3-----5-----0-------5-3-0-----------------------]
A[-0-----3-----5-----0-------5-3-0-----------------------]
D[-0-----3-----5-----0-------5-3-0-----------------------]

0 reply
ahm3d_nad33m 399 Apr 14, 2006 05:12 AM

yeah tin the album therhythm plays muted power chords c5 and d5, while xulfi does a bend

[-------------------------------------------------------]
[-10----10----10------10----10-----10-------------------]
[-12b14----14----13.5----13---12.5----12----------------]
[-------------------------------------------------------]
[-------------------------------------------------------]
[-------------------------------------------------------]
and hes slowly relasing the bend while picking it alternately

guest
You may want to rate the tab now too:
select rating
Wanna post a correction for this tab? Suggest correction