Oops, an error
Loading. Please wait.

Pukaar tab

version 2
version 2

Whole song

Interactive

957 views 1 this week
no commentswrite comment
1 2 3 4 5
2 more votes to show rating
add to favorites
×
Save as Personal and add changes to this tab that will be seen only by you. Learn more ›
×
You can save this tab as Personal to edit and correct it or add notes. All changes will be seen only by you. Learn more »
launch autoscroll
font size
0
reset
how to read this tab
guitar tuner
edit
Autoscroll
slow
fast
+/-
esc
set tempo
stop
Author
Pukaar by Call
tabbed by Ahmed Nadeem
Tuning: Dropped D

revision of teh older version!


Intro:
DOWN DOWN DOWN UP DOWN and on the next chrd shud be a UPStroke! and then on
the next one shud be a donwstroke and then on the next one shud be a upstroke.


00:13
e|-------------------------|
B|-------------------------|
G|-------------------------| 2X but on the second time stop on the third chrd. (strum it once)
D|--10--5--7--3------------|
A|--10--5--7--3------------|
D|--10--5--7--3------------|

Verse
in the verse u have to strum the same chords, but Strum each chrd 2 times and strum the first
chrd Down stroke (2 times) the the next chrd will be Upstroke 2 Times then next chrd
2 times and
upstroke 2 times on the upstrokes try to press the strings while u Strum ...dont keep
pressed..when u strum press then leave then press and strum again..ONLY FOR UPSTOKE!

00:26
In raston pe chal key.....
Guitar 2 comes in the 3rd time and Is struming the Chrds MUTED! and the chrds are
till the next chrd.

e|---------------------------------------------------|
B|---------------------------------------------------|
G|---------------------------------------------------|
D|--10-10-----5-5----7-7----3-3----------------------| X4
A|--10-10-----5-5----7-7----3-3----------------------|
D|--10-10-----5-5----7-7----3-3----------------------|
V V ^ ^ V V ^ ^

00:51
yehi pukaar haii....

e|-------------------------|
B|-------------------------|
G|-------------------------|
D|--7~7-7---5-3------------| X4
A|--7~7-7---5-3------------|
D|--7~7 7---5-3------------|


Chorus is something like this
01:05

e|---------------------------------|
B|---------------------------------|
G|---------------------------------|
D|-2-2-2-3-3-5-5-7--7-7-5-5-3-3-3--| Strum as the chorus!
A|-2-2-2-3-3-5-5-7--7-7-5-5-3-3-3--|
D|-2-2-2-3-3-5-5-7--7-7-5-5-3-3-3--|


01:17

e|----------------------------------------------|
B|----------------------------------------------|
G|--10-10-10-10p8-7-5-5-5-5-7-7-7h10-7-3-3-3-3--|
D|----------------------------------------------|
A|----------------------------------------------|
D|----------------------------------------------|


e|-------------------------------------------------------|
B|-------------------------------------------------------|
G|--10-10-10-10p8-7-5-5-5-5-7-7-7h10-10-10h12-12-14h15-14|
D|-------------------------------------------------------|
A|-------------------------------------------------------|
D|-------------------------------------------------------|

Verse 2
repeat the same ....thign again for teh 2nd verse

Then Chorus Then Slow Bit


e|-----------------------------------------|
B|---------------------5----7--------------|
G|---0-----4-----6------5----7-------------|
D|----2-----5-----7---5----7---------------|
A|--2--2--5--5--7--7-3----5----------------|
D|-2-----5-----7---------------------------|

Then Distortion Comes In
8x each Palm Muted

e|----------------------------------------------|
B|----------------------------------------------|
G|----------------------------------------------|
D|-2--------5--------7--------10-------12-------|
A|-2--------5--------7--------10-------12-------|
D|-2--------5--------7--------10-------12-------|

CRAZY BIT!

palm muted, this is the opening, try hitting the strings with the whole edge of the pick 
get the sound like it is in the song

e|----------------------------------------------|
B|----------------------------------------------|
G|----------------------------------------------|
D|----------------------------------------------|
A|----------------------------------------------|
D|-5h7-7-7-5h7-7-7-5h7-7-7-0-3------------------|

now he screams
e|----------------------------------------------|
B|----------------------------------------------|
G|----------------------------------------------|
D|-5h7-7-7-5h7-7-7-5h7-7-7-0-3------------------|
A|-5h7-7-7-5h7-7-7-5h7-7-7-0-3------------------|
D|-5h7-7-7-5h7-7-7-5h7-7-7-0-3------------------|

Teh LAst bit in Which screams 'YEHI PUKAAR HAI, etc."


e|---------------------------|
B|---------------------------|
G|---------------------------|
D|-5-5----5-5----5-5---------|
A|-5-5----5-5----5-5---------|
D|-5-5----5-5----5-5---------|

Thats about it.e-mail ur comments to ahm3d_nad33m@hotmail.com
peace out
Suggest correction
Creating personal tab
Creating personal tab
You can edit any tab online and save it as your Personal.

You can edit, replace or remove any tab part or add personal notes – all changes will be seen only by you.

Personal tabs can be accessed anytime from any device, even offline.
Learn more »
Give kudos to tab author, rate the tab!
1 2 3 4 5
comments
print report bad tab
guest
You may want to rate the tab now too:
select rating
Wanna post a correction for this tab? Suggest correction