Oops, an error
Loading. Please wait.

Sab Bhula Kai intro tab

version 1
version 1

Intro

Whole song

Interactive

5,914 views 1 this week
4 commentsread comments
1 2 3 4 5
x 4
add to favorites
×
Save as Personal and add changes to this tab that will be seen only by you. Learn more ›
×
You can save this tab as Personal to edit and correct it or add notes. All changes will be seen only by you. Learn more »
launch autoscroll
font size
0
reset
how to read this tab
guitar tuner
edit
Autoscroll
slow
fast
+/-
esc
set tempo
stop
#----------------------------------PLEASE NOTE---------------------------------#
#This file is the author's own work and represents their interpretation of the #
#song. You may only use this file for private study, scholarship, or research. #
#------------------------------------------------------------------------------#

SAB BHULA KAI INTRO wo/chords

(From the 2006 Album JILAWATAN)


Transcribed by Saad Jamil

 Words by Call Music by Sultan
Arranged by Xulfi
 

Gtr I (E A D G B E) - 'Untitled'


 4/4
  Gtr I
  S.. S.. S.. S.. S.. S.. S.. S..   S.. S.. S.. S.. S.. S.. S.. S..
|-----------------0-----------5---|---------4-----------7-----------*|
|---------0-----------0-----------|-0-----------0-----------0-------*|
|-----6-------6-----------6-------|-----6-----------6-----------6---*|
|-7-------------------------------|---------------------------------*|
|---------------------------------|---------------------------------*|
|---------------------------------|---------------------------------*|


  S.. S.. S.. S.. S.. S.. S.. S..   S.. S..  S.. S.. S.. S.. S.. S..
|-----------------0-----------7---|----------------------------------*|
|---------0-----------0-----------|-0-------10-----------9-----------*|
|-----8-------8-----------8-------|-----8--------8-----------8-------*|
|-9-------------------------------|------------------9-----------9---*|
|---------------------------------|----------------------------------*|
|---------------------------------|----------------------------------*|


  E.. S.. S.. S.. S.. S.. S.. E..   S.. S.. S.. S.. S.. S.. E. S.. S..
|-----------------0---------------|-------------0----------------------|
|---------0-----------0-----------|-----0-----------0--------------0---|
|-----6-------6-----------6-------|-6-------6-----------6------8-------|
|---------------------------------|------------------------------------|
|---------------------------------|------------------------------------|
|-5---------------------------5---|-------------------------7----------|


  S.. S.. S.. S.. E.. S.. S.. S..   S.. S.. S..
|-----0---------------------------|-0------------*|
|---------0---------------0-------|-----0--------*|
|-8-----------8-------8-------8---|---------8----*|
|---------------------------------|--------------*|
|---------------------------------|--------------*|
|-----------------7---------------|--------------*|

            
            
Suggest correction
Creating personal tab
Creating personal tab
You can edit any tab online and save it as your Personal.

You can edit, replace or remove any tab part or add personal notes – all changes will be seen only by you.

Personal tabs can be accessed anytime from any device, even offline.
Learn more »
comments
print report bad tab
4 comments total. Showing first comments.
0 reply
jilawatan69 10 Mar 24, 2006 12:24 AM

da intro iz a step down man, ur intro is a step up....

0 reply
Limaj_daas 1,417 Apr 27, 2006 11:26 PM

THIS IS THE WRONG INTRO GO TO INTRO 2 BY AHMED NADEEM!!!!!

0 reply
riazdocrat 145 Jul 17, 2008 08:16 AM

this is pretty much all correct, its better than the other version anyway

guest
You may want to rate the tab now too:
select rating
Wanna post a correction for this tab? Suggest correction