Oops, an error
Loading. Please wait.

Shayad tab

version 2
version 2

Whole song

Interactive

244 views 1 this week
1 commentread comment
1 2 3 4 5
2 more votes to show rating
add to favorites
×
Save as Personal and add changes to this tab that will be seen only by you. Learn more ›
×
You can save this tab as Personal to edit and correct it or add notes. All changes will be seen only by you. Learn more »
launch autoscroll
font size
0
reset
how to read this tab
guitar tuner
edit
Autoscroll
slow
fast
+/-
esc
set tempo
stop
I tabbed this song cause a friend of mine challenged me to.. i don't
like call ... especially when combined with xulfi chor ... (listen to
papa roach's the last resort and youll know)... jal , junoon and us
are the only talented bands in pakistan .


*chorus x2

c -------------------------------------------------------------------|
a -------------------------------------------------------------------|
f ---9--------------7--------------------------------------12---11---|
c ---9-------------10-------------7---9---10---12----------12---11---|
g ---7-------------10-------------7---9---10---12--------------------|
c ---9-------------10-------------7---9---10---12--------------------|

*verse

no guitars


*bridge  (using the wah effect ... don't tell me you don't have a pedal...)

c ---------------------------------------------|
a ---------------------------------------------|
f ---------------------------------------------|
c 2--0--2----6/8--8--2--2----2--2------7--5----|
g 2--0--2----6/8--8--2--2----2--2------7--5----|
c 2--0--2----6/8--8--2--2----2--2------7--5----|

c ----------------------------------------------|
a ----------------------------------------------|
f ----------------------------------------------|
c 2--0--2----6/8--8--2--2----2--2----7--5--0--2-|
g 2--0--2----6/8--8--2--2----2--2----7--5--0--2-|
c 2--0--2----6/8--8--2--2----2--2----7--5--0--2-|

x2

then the thing repeats twice with heavy distortion as in chorus

and when he says again "aaj bhi".. this plays

c --------------------------------------------------------------------------|
a --------------------------------------------------------------------------|
f --------------------------------------------------------------------------|
c 10-------------12-------------2--0--2----6/8--8--2--2----2--2------7--5---|
g 10-------------12-------------2--0--2----6/8--8--2--2----2--2------7--5---|
c 10-------------12-------------2--0--2----6/8--8--2--2----2--2------7--5---|


c -------------------------------------------------------------|
a -------------------------------------------------------------|
f -------------------------------------------------------------|
c 10-------------12-------------7---9---10----12-------------2-|
g 10-------------12-------------7---9---10----12-------------2-|
c 10-------------12-------------7---9---10----12-------------2-|


any comments? need new tabs? mail at razakhosa@hotmail.com

            
            
Suggest correction
Creating personal tab
Creating personal tab
You can edit any tab online and save it as your Personal.

You can edit, replace or remove any tab part or add personal notes – all changes will be seen only by you.

Personal tabs can be accessed anytime from any device, even offline.
Learn more »
Give kudos to tab author, rate the tab!
1 2 3 4 5
comments
print report bad tab
1 comment total.
0 reply
Limaj_daas 1,417 Mar 13, 2006 02:27 PM

The tuning is wrong. So is the intro. And he plays something during the verse.

guest
You may want to rate the tab now too:
select rating
Wanna post a correction for this tab? Suggest correction