Oops, an error
Loading. Please wait.

Wujud solo tab

version 1
version 1

Solo

Interactive

613 views 1 this week
no commentswrite comment
1 2 3 4 5
3 more votes to show rating
add to favorites
×
Save as Personal and add changes to this tab that will be seen only by you. Learn more ›
×
You can save this tab as Personal to edit and correct it or add notes. All changes will be seen only by you. Learn more »
launch autoscroll
font size
0
reset
how to read this tab
guitar tuner
edit
Autoscroll
slow
fast
+/-
esc
set tempo
stop
Solo:

   BEND EACH NOTE AND HOLD, STRUM A BIT. THEN RELEASE N' GO TO NEXT NOTE AND REPEAT.
e --------------------------------------|
B -10----13----12-----10----13----15----|
G -12b14-15b17-14b16--12b14-15b17-17b19-|
D --------------------------------------|
A --------------------------------------|
D --------------------------------------|

e -------------|
B -15-15-15-15-|
G -------------|
D -------------|
A -------------|
D -------------|

LEAD:
    (Tremelo Picking All Along the Measure)
e-------------------------------------------------|
B-15-15-17-15-15-19-15-15-17-15-15-19-15-15-19-15-|
G-------------------------------------------------|
D-------------------------------------------------|
A-------------------------------------------------|
D-------------------------------------------------|

RHYTHM:

STRUM HARD AND IN TIME WITH THE LEAD...

e -----------------------------------------------|
B -----------------------------------------------|
G -----------------------------------------------|
D -0---------------2---7---3--------------7---2--|
A -0---------------2---7---3--------------7---2--|
D -0---------------2---7---3--------------7---2--|

LEAD:

    (Tremelo Picking All Along the Measure)
e-------------------------------------------------|
B-15-15-17-15-15-19-15-15-17-15-15-19-15-15-19-15-|
G-------------------------------------------------|
D-------------------------------------------------|
A-------------------------------------------------|
D-------------------------------------------------|

RHYTHM:

e -----------------------------------------------|
B -----------------------------------------------|
G -----------------------------------------------|
D -0---------------2---7---3--------------7---2--|
A -0---------------2---7---3--------------7---2--|
D -0---------------2---7---3--------------7---2--|

LEAD:

    (Tremelo Picking All Along the Measure)
e-------------------------------------------------|
B-15-15-17-15-15-19-15-15-17-15-15-19-15-15-19-15-|
G-------------------------------------------------|
D-------------------------------------------------|
A-------------------------------------------------|
D-------------------------------------------------|

RHYTHM:

e -----------------------------------------------|
B -----------------------------------------------|
G -----------------------------------------------|
D -0---------------2---7---3--------------7---2--|
A -0---------------2---7---3--------------7---2--|
D -0---------------2---7---3--------------7---2--|

LEAD:

e ------------------------------------------------|
B -1/6-1/8-1/10-1/3-13-13-1/6-1/8-1/10-1/15-15-15-|
G ------------------------------------------------|
D ------------------------------------------------|
A ------------------------------------------------|
D ------------------------------------------------|

RHYTHM (PLAY IN SAME TIME AS CHORUS RIFF):

e ------------------------------------|
B ------------------------------------|
G ------------------------------------|
D -3~-3-3-3-3-3-3-3-/5~-5-5-5-5-5-5-5-|
A -3~-3-3-3-3-3-3-3-/5~-5-5-5-5-5-5-5-|
D -3~-3-3-3-3-3-3-3-/5~-5-5-5-5-5-5-5-|

LEAD:

e -------13-15b16r15-15-13-------------------------13-15b16-15b16-15b16-15b16-12-|
B -13-15-------------------15-13-15-15-13-15-13-15-------------------------------|
G -------------------------------------------------------------------------------|
D -------------------------------------------------------------------------------|
A -------------------------------------------------------------------------------|
D -------------------------------------------------------------------------------|

RHYTHM (PLAY IN SAME TIME AS CHORUS RIFF):

e ----------------------------------|
B ----------------------------------|
G ----------------------------------|
D -5-5-8-9-10-3-3-3-3-5-5-8-9-5-x-x-|
A -5-5-8-9-10-3-3-3-3-5-5-8-9-5-x-x-|
D -5-5-8-9-10-3-3-3-3-5-5-8-9-5-x-x-|

LEAD:

e -12s20-12s20-12s20-12s20-12s20-12s20-12s20-12s20-12s20-|
B -------------------------------------------------------|
G -------------------------------------------------------|
D -------------------------------------------------------|
A -------------------------------------------------------|
D -------------------------------------------------------|

RHYTHM (PLAY IN SAME TIME AS CHORUS RIFF):

e ------------------------------------|
B ------------------------------------|
G ------------------------------------|
D -3~-3-3-3-3-3-3-3-/5~-5-5-5-5-5-5-5-|
A -3~-3-3-3-3-3-3-3-/5~-5-5-5-5-5-5-5-|
D -3~-3-3-3-3-3-3-3-/5~-5-5-5-5-5-5-5-|

LEAD:

e -12s22-22-22-22-22-22-22-22-|
B ----------------------------|
G ----------------------------|
D ----------------------------|
A ----------------------------|
D ----------------------------|

RHYTHM:

STAY QUIET!

LEAD:

    		(Tremelo Picking All Along the Measure)
e-----------------13h15-------15-------15-------15-------15-------15
b-/15-15-15-13h15-------13h15----13h15----13h15----13h15----13h15---
g-------------------------------------------------------------------
d-------------------------------------------------------------------
a-------------------------------------------------------------------
e-------------------------------------------------------------------

    		(Tremelo Picking All Along the Measure)
e------15------15-15-15-15-15-13-13-10\------8h10------10------10---
b-3h15----13h15-------------------------8h10------8h10----8h10------
g-------------------------------------------------------------------
d-------------------------------------------------------------------
a-------------------------------------------------------------------
e-------------------------------------------------------------------

    		(Tremelo Picking All Along the Measure)
			     /2		       /2
e------10------10-10-10-8-10/--10-8-10-8------/---------------------
b-8h10----8h10---------------------------10-8/---10-8---------------
g-----------------------------------------------------10-8-8-8-8\---
d-------------------------------------------------------------------
a-------------------------------------------------------------------
e-------------------------------------------------------------------

RHYTHM (YES THIS IS THE RHYTHM FOR TEH THREE MEASURES ABOVE...

e ----------------------------------------------------------------------|
B ----------------------------------------------------------------------|
G ----------------------------------------------------------------------|
D -7h10-10-10-9-9p7-10-10-10-10-10-9-9-7h10-10-10-9-9-9-4~-4~-4-4-4-4s5-|
A -7h10-10-10-9-9p7-10-10-10-10-10-9-9-7h10-10-10-9-9-9-4~-4~-4-4-4-4s5-|
D -7h10-10-10-9-9p7-10-10-10-10-10-9-9-7h10-10-10-9-9-9-4~-4~-4-4-4-4s5-|

							PM  PM--------|
e --------------------------------------------------------------------|
B --------------------------------------------------------------------|
G --------------------------------------------------------------------|
D -7h10-10-10-9-9p7-10-10-10-10-10-9-9-7h10-10-10-9-9-9-2-2-2-2-2-2-2-|
A -7h10-10-10-9-9p7-10-10-10-10-10-9-9-7h10-10-10-9-9-9-2-2-2-2-2-2-2-|
D -7h10-10-10-9-9p7-10-10-10-10-10-9-9-7h10-10-10-9-9-9-2-2-2-2-2-2-2-|

            
            
Suggest correction
Creating personal tab
Creating personal tab
You can edit any tab online and save it as your Personal.

You can edit, replace or remove any tab part or add personal notes – all changes will be seen only by you.

Personal tabs can be accessed anytime from any device, even offline.
Learn more »
Give kudos to tab author, rate the tab!
1 2 3 4 5
comments
print report bad tab
guest
You may want to rate the tab now too:
select rating
Wanna post a correction for this tab? Suggest correction