Oops, an error
Loading. Please wait.

Adrienne Tab

version 1
version 1

Intro

Whole song

Interactive

14,028 views 9 this week
4 commentsread comments
1 2 3 4 5
accurate
x 12
add to favorites
launch autoscroll
font size
0
reset
how to read this tab
guitar tuner
Tab Pro tools
  • play this tab
  • loop segment
  • change instrument
  • show fretboard
  • metronome
Autoscroll
slow
fast
+/-
esc
set tempo
stop
Contributor
title: Adrienne 
artist: The Calling
tab by: Lendon Wall

Intro

Guitar 1:
   Em7        D         Bmsus4       C    D
e---3---------2----------0-----------0----2---
B---3---------3----------3-----------1----3---
G---0---------2----------4-----------0----2---
D---2---------0----------4-----------2----0---
A---2---------0----------2-----------3----0---
E---0--------------------0--------------------


Guitar 2:
  Em7
E--3------------0---------------3------------0--3-------
B-----3-3----3-----3---------------3-3----3-------------
G----------0----------3-----------------0---------------
D-----------------------0-------------------------------
A-------------------------------------------------------
E-------------------------------------------------------

This is my first tab, I think it's pretty accurate, and please don't cuss me out if it's wrong.
comments
print report bad tab
4 comments total. Showing first comments.
0 reply
davidmccrea wrote on March 6 2005, 12:00 am

Em7
E--3------------0---------------3------------0--3-------
B-----3-3----3-----3---------------3-3----3-------------
G----------0----------3---0--------------0---------------
D------------------------------------------------------
A-------------------------------------------------------
E-------------------------------------------------------

I think this is maybe slightly more accurate with a change on D to G on the 9 note. Other than that its brilliant. Thanks alot!

David McCrea

0 reply
yetzkie29 wrote on January 18 2006, 08:48 pm

i dont think so..

0 reply
rogueinspace wrote on November 5 2006, 05:50 am

Somethings weird about that C chord, but it could be right, I'm not sure.

There is a slide from the last noted of what davidmccrea did, from somewhere around the sixth fret, I'm not exactly sure though.

Great tab for your first one dude!

I want to post or [tab]
guest
You may want to rate the tab now too:
select rating
Please do not post tabs as comments. Select "correction" instead!