Oops, an error
Loading. Please wait.

For You Tab

version 3
version 3

Whole song

4,982 views 1 this week
no commentswrite comment
1 2 3 4 5
please rate
add to favorites
launch autoscroll
font size
0
reset
how to read this tab
guitar tuner
Tab Pro tools
  • play this tab
  • loop segment
  • change instrument
  • show fretboard
  • metronome
×
Best way to learn
"For You"
Autoscroll
slow
fast
+/-
esc
set tempo
stop
Contributor
FOR YOU
The Calling

standard tuning:

intro:
e-----------------------------------|
B-----------------------------------|
G--7-7-7--9-9-9--11-11-11-13-13-13--|   (2x)
D--x-x-x--x-x-x--x--x--x--x--x--x---|
A--5-5-5--7-7-7--9--9--9--11-11-11--|
E-----------------------------------|

verse: *the first 3 are strokes downwards the rest are in palm mute
e--------------------------------------|
B--------------------------------------|
G--------------------------------------|
D--------------------------4-4-4-4-----|
A--4-4-4-4-4---2-2-2-2-----2-2-2-2-----|
E--2-2-2-2-2---0-0-0-0-----------------|
        "iam  vision, iam justice never..."

e------------------------------------|
B------------------------------------|
G------------------------------------|
D--7-7-7-7------9-9-9-9--------------|
A--5-5-5-5------7-7-7-7--------------|
E------------------------------------|
  "thought that i could love.."

(same tabs)
living in shadows
fading existance
it was never good enough
within the darkness
you are the light that shines the way
but youre trapped in violence
i can be the man who saves the day

chorus:
e-------------------------------------------------------|
B-------------------------------------------------------|
G-------------------------7-7-7-9-9-9-11-11-11-13-13-13-|
D------------9-9-9-9-9-9--x-x-x-x-x-x-x--x--x--x--x--x--|
A-7-7-7-7-7--7-7-7-7-7-7--5-5-5-7-7-7-9--9--9--11-11-11-|
E-5-5-5-5-5---------------------------------------------|
       "im   there for    you.........no      matter.....

e-------------------------------------------------------|
B-------------------------------------------------------|
G-------------------------7-7-7-9-9-9-11-11-11-13-13-13-|
D------------9-9-9-9-9-9--x-x-x-x-x-x-x--x--x--x--x--x--|
A-7-7-7-7-7--7-7-7-7-7-7--5-5-5-7-7-7-9--9--9--11-11-11-|
E-5-5-5-5-5---------------------------------------------|
  "what...im there for    you.........never   giving.....

e-------------------------------------------------------|
B-------------------------------------------------------|
G-------------------------7-7-7-9-9-9-11-11-11-13-13-13-|
D------------9-9-9-9-9-9--x-x-x-x-x-x-x--x--x--x--x--x--|
A-7-7-7-7-7--7-7-7-7-7-7--5-5-5-7-7-7-9--9--9--11-11-11-|
E-5-5-5-5-5---------------------------------------------|
 "up... im   there  for   you...                    for    you"

(repeat tabs in 1st verse)
someone's changed me
something's saved me
and this is who iam
although i was blinded
my heart let me find out
that the truth makes a better man
i didn't notice
that you we're right in front of me
our masks of silence
we'll put away so we can see

***REPEAT CHORUS***

Bridge: *the first 2 are strokes downwards the rest are in palm mute
e------------------------------------------|
B------------------------------------------|
G------------------------------------------|
D------------------------------4-4-4-4-----|
A--4-4-4-4-4-----2-2-2-2-------2-2-2-2-----|
E--2-2-2-2-2-----0-0-0-0-------------------|
     "within the darkness, you are the light..that"

e--------------------------------|
B--------------------------------|
G--------------------------------|
D--7-7-7-7--9-9-9-9--------------|
A--5-5-5-5--7-7-7-7--------------|
E--------------------------------|
  "shines a way.."

(same tabs)
in this blind justice
i can be that man who save the day

chorus (end part)

e-------------------------------------------------------|
B-------------------------------------------------------|
G-------------------------7-7-7-9-9-9-11-11-11-13-13-13-|
D------------9-9-9-9-9-9--x-x-x-x-x-x-x--x--x--x--x--x--|
A-7-7-7-7-7--7-7-7-7-7-7--5-5-5-7-7-7-9--9--9--11-11-11-|
E-5-5-5-5-5---------------------------------------------|
       "im   there for    you.........no      matter.....

e-------------------------------------------------------|
B-------------------------------------------------------|
G-------------------------7-7-7-9-9-9-11-11-11-13-13-13-|
D------------9-9-9-9-9-9--x-x-x-x-x-x-x--x--x--x--x--x--|
A-7-7-7-7-7--7-7-7-7-7-7--5-5-5-7-7-7-9--9--9--11-11-11-|
E-5-5-5-5-5---------------------------------------------|
  "what...im there for    you.........never   giving.....

e----------------------------------------------------------|
B----------------------------------------------------------|
G----------------------------7-7-7-9-9-9-11-11-11-13-13-13-|
D---------------9-9-9-9-9-9--x-x-x-x-x-x-x--x--x--x--x--x--|
A----7-7-7-7-7--7-7-7-7-7-7--5-5-5-7-7-7-9--9--9--11-11-11-|
E----5-5-5-5-5---------------------------------------------|
 "up....   you   know its    true...     you were there for me.."

e-------------------------------------------------------|
B-------------------------------------------------------|
G-------------------------7-7-7-9-9-9-11-11-11-13-13-13-|
D------------9-9-9-9-9-9--x-x-x-x-x-x-x--x--x--x--x--x--|
A-7-7-7-7-7--7-7-7-7-7-7--5-5-5-7-7-7-9--9--9--11-11-11-|
E-5-5-5-5-5---------------------------------------------|
  "And  im   here for     you.........for      you....."

e-----------------------------------|
B-----------------------------------|
G--7-7-7--9-9-9--11-11-11-13-13-13--|   (2x)
D--x-x-x--x-x-x--x--x--x--x--x--x---|
A--5-5-5--7-7-7--9--9--9--11-11-11--|
E-----------------------------------|
   "              for       you.........."

end with:
e-------|
B-------|
G-------|
D-------|
A---7---|
E---5---|


hope you guys like it!

don't forget to check out:
www.friendster.com/makehaste
comments
We did not receive enough feedback on this tab! Please rate:
print report bad tab
1 2 3 4 5
I want to post or [tab]
guest
You may want to rate the tab now too:
select rating
Please do not post tabs as comments. Select "correction" instead!