Oops, an error
Loading. Please wait.

Stigmatized Tab

version 1
version 1

Intro

Whole song

Interactive

6,822 views 4 this week
1 commentread comment
1 2 3 4 5
please rate
add to favorites
launch autoscroll
font size
0
reset
how to read this tab
guitar tuner
Tab Pro tools
  • play this tab
  • loop segment
  • change instrument
  • show fretboard
  • metronome
×
Best way to learn
"Stigmatized"
Autoscroll
slow
fast
+/-
esc
set tempo
stop
Contributor
Capo
2nd fret
Band: The Callng
Song: Stigmatized
This is an awesome song from an awesome band! I have only
figured out the intro completely and need some help on the rest. 
I havn't seen a tab for this song yet, but I have seen some people 
asking for it, so maybe this will get your juices flowing and you 
can finish this for me. thanks!

capo 2nd fret

e|--0---0---0---0-----2---2---2---2------|
B|--0---0---0---0-----2---2---2---2------|
G|--1---4---1---4-----3---4---3---4------|
D|--2---2---2---2-----4---4---4---4------|
A|--2---2---2---2-----4---2---4---2------|
E|--0---0---0---0-----2---x---2---x------|

if you have any questions or if you finish this tab (i have an idea 
but wasn't postive of it) email me at njordan_2000@yahoo.com
comments
We did not receive enough feedback on this tab! Please rate:
print report bad tab
1 2 3 4 5
1 comment total.
0 reply
bass_freak_1985 wrote on June 2 2002, 12:00 am

e|--0---0---0---0-----2---2---2---2------|
B|--0---0---0---0-----2---2---2---2------|
G|--1--1---1---1-----3---4---3---4------|
D|--2---4---2---4-----4---4---4---4------|
A|--2---2---2---2-----4---2---4---2------|
E|--0---0---0---0-----2---x---2---x------|

This should be closer, using the four on the G string the second strum set desntsound quite right,hope this helps :)
+*+Britt+*+

I want to post or [tab]
guest
You may want to rate the tab now too:
select rating
Please do not post tabs as comments. Select "correction" instead!