Oops, an error
Loading. Please wait.

Stigmatized Tab

version 1
version 1

Intro

Whole song

Interactive

5,124 views 21 this week
2 commentsread comments
1 2 3 4 5
accurate
x 2
add to favorites
launch autoscroll
font size
0
reset
how to read this tab
guitar tuner
Tab Pro tools
  • play this tab
  • loop segment
  • change instrument
  • show fretboard
  • metronome
Autoscroll
slow
fast
+/-
esc
set tempo
stop
Artist: The Calling
Album: Camino Palmero
Track: Stigmatized
Tabbed by Andy J Whiteway

tuning: 1/2 a step down (Eb Ab Db Gb Bb Eb)

special credit to stephen who worked out the tuning and the verse/chorus,
much respect is due.

Intro/Verse:

e------------     -----------
b------------     -----------
g----4--2----     ----6---7--
d----0--0---- x2  ----0---0-- x2
a----x--x----     ----x---x--
e----3--3----     ----5---7--

Chorus:

e--------------------------------
b--------------------------------
g----12---11---9----7-6----------
d-----0----0---0----0-0----------
a-----x----x---x----x-x----------
e----12---10---9----7-5----------



Now do the second verse and Chorus and then go into this
pattern before the breakdown:

e-----------------------------
b-----------------------------
g---4-2-4-2---------6-6-6-6---
d---0-0-0-0---------0-0-0-0---
a---x-x-x-x---------x-x-x-x---
e---3-3-3-3---------5-5-5-5---

e--------------------------------
b--------------------------------
g---4-2-4-2---6-6-6-6--7-7-7-7---
d---0-0-0-0---0-0-0-0--0-0-0-0---
a---x-x-x-x---x-x-x-x--x-x-x-x---
e---3-3-3-3---5-5-5-5--7-7-7-7---

just live our lives........Stigmatized!
e-----------------------------
b-----------------------------
g-------4-4--2-2-----6---~----
d-------0-0--0-0-----0---~----
a-------x-x--x-x-----x---~----
e-------3-3--3-3-----5---~----



Breakdown:

e--------------------------------------------------
b--------------------------------------------------
g---2-2-4-4------6-6-7-7-6----2-2-2-4-----6-6-7-6--
d---0-0-0-0------0-0-0-0-0----0-0-0-0-----0-0-0-0--
a---x-x-x-x------x-x-x-x-x----x-x-x-x-----x-x-x-x--
e---2-2-3-3------5-5-7-7-5----2-2-2-3-----5-5-7-5--

Go back into the chorus and then repeat the breakdown oncemore.

then back into this pattern:


e------------------------------------
b------------------------------------
g---4--2-4-2---------6--6-6----------
d---0--0-0-0---------0--0-0----------
a---x--x-x-x---------x--x-x----------
e---3--3-3-3---------5--5-5----------

e----------------------------------------
b----------------------------------------
g---4-2-4-2-----6-6-6---7-7-7------------
d---0-0-0-0-----0-0-0---0-0-0------------
a---x-x-x-x-----x-x-x---x-x-x------------
e---3-3-3-3-----5-5-5---7-7-7------------x3

e-----------------
b-----------------
g---4-4-----2-2---
d---0-0-----0-0---
a---x-x-----x-x---
e---3-3-----2-2---

finish on (not sure this sounds totally right,
i'd welcome any corrections!):

e------------------------
b---------3--------------
g---------2-----7--~-----
d--2---0--0-----0--~-----
a--2---2--0-----x--~-----
e--0---3--0-----7--~-----

stay tuned while i work out the lead guitar part(s)!
hopefully i'll have them all done soon. 
comments, corrections, andrewwhiteway@hotmail.com
comments
We did not receive enough feedback on this tab! Please rate:
print report bad tab
1 2 3 4 5
2 comments total.
0 reply
Fabboair wrote on September 15 2002, 12:00 am

Great tab man. Sounds spot on.

0 reply
littledebbie wrote on March 23 2007, 05:38 pm

Yeah great job

I want to post or [tab]
guest
You may want to rate the tab now too:
select rating
Please do not post tabs as comments. Select "correction" instead!