Oops, an error
Loading. Please wait.

Stigmatized Tab

version 5
version 5

Intro

Whole song

Interactive

13,196 views 15 this week
1 commentread comment
1 2 3 4 5
excellent!
x 2
add to favorites
launch autoscroll
font size
0
reset
how to read this tab
guitar tuner
Tab Pro tools
  • play this tab
  • loop segment
  • change instrument
  • show fretboard
  • metronome
Autoscroll
slow
fast
+/-
esc
set tempo
stop
Stigmatized
Tunning : Standard / Half Step
Tabbed by : Dennis Bagaporo, UST

This song means a lot to me......hope u guys don't mind that I improved the tabbing.
I recently got the extended version of the song and I also included the tabs.....hope
I got it right and hope you guys like it...dedicated to....someone

Strumming 4/4

Intro

e |---x---------x---------x---------x---------o---------o--------|
B |---3---------3---------3---------3---------2---------2h3------|
G |---4---------2---------4---------2---------2---------2--------|    2x
D |---0---------0---------0---------0---------0---------0--------|
A |---0---------0---------0---------0---------0---------0--------|
E |---3---------3---------3---------x---------x---------x--------|

Verse 1 (Guitar 1)

e |---x---------x---------x---------x---------o---------o----|
B |---3---------3---------3---------3---------2---------2h3--|
G |---4---------2---------4---------2---------2---------2----|
D |---0---------0---------0---------0---------0---------0----|
A |---0---------0---------0---------0---------0---------0----|
E |--3----------3---------3---------x---------x---------x----|

e |---x---------x---------x---------x---------o---------o----|
B |---3---------3---------3---------3---------2---------2h3--|
G |---4---------2---------4---------2---------2---------2----|
D |---0---------0---------0---------0---------0---------0----|
A |---0---------0---------0---------0---------0---------0----|
E |---3---------3---------3---------x---------x---------x----|

Verse 1 (Guitar 2)

e |---8---7-----------------------8---------|
B |------------8-----------------------8----|
G |----------------8/10-10/8----------------|
D |-----------------------------------------|
A |-----------------------------------------|
E |-----------------------------------------|

Pre Chorus

e |---3---------2---------o--------o--------o----|
B |---3---------3---------o--------2--------2h3--|
G |---0---------o---------2--------2--------2----|
D |---o---------o---------o--------o--------o----|
A |---o---------x---------x--------x--------x----|
E |---3---------x---------x--------x--------x----|


e |---3---------2---------o--------o--------o-----|
B |---3---------3---------o--------2--------2h3---|
G |---0---------o---------2--------2--------2-----|
D |---o---------o---------o--------o--------o-----|
A |---o---------x---------x--------x--------x-----|
E |---3---------x----------x--------x--------x----|


Chorus

e |---o---------o---------o---------o---------o--------o---|
B |---2---------2---------2---------2---------2--------2---|
G |---o---------2---------2h3------o---------2--------2h3--|
D |---o---------o---------o---------o---------o---------o--|
A |---o---------x---------x---------o---------x---------x--|
E |---3---------x---------x---------3---------x---------x--|


Verse 2 (Guitar 1)

e |---x---------x---------x---------x---------o---------o---|
B |---3---------3---------3---------3---------2---------2h3-|
G |---4---------2---------4---------2---------2---------2---|
D |---0---------0---------0---------0---------0---------0---|
A |---0---------0---------0---------0---------0---------0---|
E |---3----------3---------3---------x---------x---------x--|

e |---x---------x---------x---------x---------o---------o-----|
B |---3---------3---------3---------3---------2---------2h3---|
G |---4---------2---------4---------2---------2---------2-----|
D |---0---------0---------0---------0---------0---------0-----|
A |---0---------0---------0---------0---------0---------0-----|
E |---3----------3---------3---------x---------x---------x----|

Verse 2 (Guitar 2)

e |---8---7-----------------------8------|
B |------------8-----------------------8-|
G |----------------8/10-10/8-------------|
D |--------------------------------------|
A |--------------------------------------|
E |--------------------------------------|


Pre Chorus

e |---3---------2---------o--------o--------o----|
B |---3---------3---------o--------2--------2h3--|
G |---0---------o---------2--------2--------2----|
D |---o---------o---------o--------o--------o----|
A |---o---------x---------x--------x--------x----|
E |---3---------x---------x--------x--------x----|


e |---3---------2---------o--------o--------o----|
B |---3---------3---------o--------2--------2h3--|
G |---0---------o---------2--------2--------2----|
D |---o---------o---------o--------o--------o----|
A |---o---------x---------x--------x--------x----|
E |---3---------x---------x--------x--------x----|


Chorus

e |---o---------o---------o---------o---------o--------o---|
B |---2---------2---------2---------2---------2--------2---|
G |---o---------2---------2h3------o---------2--------2h3--|
D |---o---------o---------o---------o---------o------------|o
A |---o---------x---------x---------o---------x--------x---|
E |---3---------x---------x---------3---------x--------x---|

e |---o---------o---------o---------o---------o--------o---|
B |---2---------2---------2---------2---------2--------2---|
G |---o---------2---------2h3------o---------2--------2h3--|
D |---o---------o---------o---------o---------o------------|o
A |---o---------x---------x---------o---------x--------x---|
E |---3---------x---------x---------3---------x--------x---|

Bridge

e |--o---o---o---o---o-o-o-|
B |--8---7---5---7---5-7-8-|
G |--7---7---7---7---7-7-7-|
D |--o---o---o---o---o-o-o-|
A |--o---o---o---o---o-o-o-|
E |------------------------|


Stigmatized Extended Version

Guitar1

e |---x---------x---------x---------x---------o---------o----|
B |---3---------3---------3---------3---------2---------2h3--|
G |---4---------2---------4---------2---------2---------2----|
D |---0---------0---------0---------0---------0---------0----|
A |---0---------0---------0---------0---------0---------0----|
E |--3----------3---------3---------x---------x---------x----|

guitar2
e|-----0----------2----------3-------------|
B|---2---2------3---3------3---3---2-3-2/5-|
G|-3-------3--0-------0--4------4----------|
D|-----------------------------------------|
A|-----------------------------------------|
E|-----------------------------------------|

Guitar 3

e |---2---3---5---3---2—--------------------|
B |-----------------------1/2-2---3---------|
G |-----------------------------------------|
D |-----------------------------------------|   2X
A |-----------------------------------------|
E |-----------------------------------------|
comments
We did not receive enough feedback on this tab! Please rate:
print report bad tab
1 2 3 4 5
1 comment total.
0 reply
SebPL wrote on June 10 2005, 12:00 am

very good tab;]

I want to post or [tab]
guest
You may want to rate the tab now too:
select rating
Please do not post tabs as comments. Select "correction" instead!